Bendición, Martin Valverde (bajo)

Autor: Anónimo | 28408 visualizaciones

A|-----------------5--5-----------------|
E|3--3--3--3---3-----------1-1-1--3-3-3-|
 En el nombre del Paadre

A|-----------------5--5-----------------|
E|3--3--3--3---3-----------1-1-1--3-3-3-|
 En el nombre del Hijo

A|-----------------5--5-5---------------|
E|3--3--3--3---3-----------1-1-1--3-3-3-|
 Y en el nombre del Sa...anto Espiritu

A|5-5--5----------|
E|---------3-3-3--|
 Dios me bendijo. 


A|-----------------5--5-----------------|
E|3--3--3--3---3-----------1-1-1--3-3-3-|
 En el nombre del Paadre

A|-----------------5--5-----------------|
E|3--3--3--3---3-----------1-1-1--3-3-3-|
 En el nombre del Hijo

A|-----------------5--5-5---------------|
E|3--3--3--3---3-----------1-1-1--3-3-3-|
 Y en el nombre del Sa...anto Espiritu

A|5-5--5----------|
E|---------3-3-3--|
 Dios me bendijo.
Calificar esta versión:
Aviso: Este fichero es trabajo propio de su transcriptor y representa su interpretación personal de la canción. El material contenido en esta página es para exclusivo uso privado, por lo que se prohibe su reproducción o retransmisión, así como su uso para fines comerciales.
Más versiones de Bendición, Martin Valverde
Bendición
acordes
Bendición
bajo
Descubre más canciones de Martin Valverde