Alguien Te Ama, Martin Valverde (bajo)

Autor: Anónimo | 22412 visualizaciones

                               ALGUIEN TE AMA

ESCUCHEN LA CANCION PARA QUE LE PONGAN RITMO
ES UNA CANCION MUY SENCILLA. 


A|-5--5-5--5--------------|
E|-------------5--5-5--5--|
 Cuando todo está obscuro

E|-5-5-----3--3---3--3-3-3--0--5-5-5-|   
 Cuando sientas, que nadie te quiere

A|-5--5-5--5--------------|
E|-------------5--5-5--5--|
 Piensa que existe alguien

E|3--3-3-3-3--0--5-5-5-|   
 Que te ama, de verdad



E|-5-5---3--3-3--3---0--5-5-5-|  
 Piensa que alguien te quiere

A|-----5-5--5------------2-2-|
E|5-5-------------2--2-------|   
 Y que contigo, siempre está

E|3--3---3--3-3-3--0-5-5-| 
 Piensa que quien te ama

A|--3-3-3-|
E|5-------|
 Es Jesús



A|-5--5-5--5--------------|
E|-------------5--5-5--5--|
 Cuando creas que esta vida
 
E|-5-5--3-3--0-5-5-5-|  
 Se te hace imposible

A|-5--5-5--5--------------|
E|-------------5--5-5--5--| 
 Cuando existan barreras

E|-5-5--3-3--0-5-5-5-|   
 Que no te dejen amar



E|-5-5---3--3-3--3---0--5-5-5-|  
 Piensa que alguien te quiere

A|-----5-5--5------------2-2-|
E|5-5-------------2--2-------|     
 Y que contigo, siempre está

E|3--3---3--3-3-3--0-5-5-| 
 Piensa que quien te ama

A|--3-3-3-|
E|5-------|
 Es Jesús
    

 
E|-5-5---3--3-3--3---0--5-5-5-|  
 Piensa que alguien te quiere

A|-----5-5--5------------2-2-|
E|5-5-------------2--2-------|     
 Y que contigo, siempre está

E|3--3---3--3-3-3--0-5-5-| 
 Piensa que quien te ama

A|--3-3-3-|
E|5-------|
 Es Jesús


DUDAS Y/O COMENTARIOS 
ACORDE_49@HOTMAIL.COM
Calificar esta versión:
Aviso: Este fichero es trabajo propio de su transcriptor y representa su interpretación personal de la canción. El material contenido en esta página es para exclusivo uso privado, por lo que se prohibe su reproducción o retransmisión, así como su uso para fines comerciales.
Más versiones de Alguien Te Ama, Martin Valverde
Alguien Te Ama
acordes
Alguien Te Ama
bajo
Descubre más canciones de Martin Valverde