Misery, Maroon 5 (tablatura)

Autor: glnder | 41320 visualizaciones



INTRO

e|x--x-x--x-x-----------------x--x-x--x-x------------------------|
B|8--x-x--x-x-10-10--8--10--8-7--x-x--x-x-7-7-9--10-10-9---------|
G|9--x-x--x-x--9--9--9---9--9-8--x-x--x-x-8-8-8---8--8-8---------|
D|10-x-x--x-x-10-10-10--10-10-9--x-x--x-x-9-9-9---9--9-9---------|
A|x--x-x--x-x-----------------x--x-x--x-x------------------------|
E|x--x-x--x-x-----------------x--x-x--x-x------------------------|


e|x--x-x--x-x--------------------x---x--|
B|x--x-x--x-x-10-10--8--10--8--7-x-7-x-7|
G|x--x-x--x-x--9--9--9---9--9--8-x-8-x-8|
D|x--x-x--x-x-10-10-10--10-10--9-x-9-x-9|
A|x--x-x--x-x--------------------x---x--|
E|x--x-x--x-x--------------------x---x--|

VERSE 1
  So Scared of...
e|x--x-x--x-x-----------------x--x-x--x-x------------------------|
B|x--x-x--x-x-10-10--8--10--8-x--x-x--x-x-7-7-9--10-10-9---------|
G|x--x-x--x-x--9--9--9---9--9-x--x-x--x-x-8-8-8---8--8-8---------| x2
D|x--x-x--x-x-10-10-10--10-10-x--x-x--x-x-9-9-9---9--9-9---------|
A|x--x-x--x-x-----------------x--x-x--x-x------------------------|
E|x--x-x--x-x-----------------x--x-x--x-x------------------------|
 Sometimes...
e|x--x-x--x-x-----------------x--x-x--x-x------------------------|
B|x--x-x--x-x-11-11--8--11--8-x--x-x--x-x-7-7-10--7--------------|
G|x--x-x--x-x--9--9--9---9--9-x--x-x--x-x-8-8--8--8--8-----------|
D|x--x-x--x-x-10-10-10--10-10-x--x-x--x-x-9-9--9--9--9-----------|
A|x--x-x--x-x-----------------x--x-x--x-x------------------------|
E|x--x-x--x-x-----------------x--x-x--x-x------------------------|
  You've Had...
e|x--x-x--x-x-----------------x--x-x--x-x------------------------|
B|x--x-x--x-x-10-10--8--10--8-x--x-x--x-x-7-7-9--10-10-9---------|
G|x--x-x--x-x--9--9--9---9--9-x--x-x--x-x-8-8-8---8--8-8---------|
D|x--x-x--x-x-10-10-10--10-10-x--x-x--x-x-9-9-9---9--9-9---------|
A|x--x-x--x-x-----------------x--x-x--x-x------------------------|
E|x--x-x--x-x-----------------x--x-x--x-x------------------------|

PRECHORUS
Use the funk strum again even though its not notated!  These are the same two chords

So let me be...
e|---------------------------------------------------------------|
B|-8----------------------------7--------------------------------|
G|-9----------------------------8--------------------------------|
D|10----------------------------9--------------------------------|
A|---------------------------------------------------------------|
E|---------------------------------------------------------------|

CHORUS
Funk strum here too!

I am in Misery...
e|--x-x---5--5-x-5-5---x-x------------|
B|8-x-x-8-5--5-x-5-5-7-x-x-7-8--8--8-8|
G|9-x-x-9-5--5-x-5-5-7-x-x-7-9--9--9-9|  x6
D|9-x-x-9-7--7-x-7-7-7-x-x-7-9--9--9-9|
A|7-x-x-7-7--7-x-7-7-5-x-x-5-7--7--7-7|
E|--x-x--------x-------x-x------------|
[ Tab from: http://www.guitartabs.cc/tabs/m/maroon_5/misery_tab.html ]
VERSE 2
  You're...salty
e|----------------------------x--x-x--x-x------------------------|
B|8---------------------------7--x-x--x-x-7-7-9--10-10-9---------|
G|9---------------------------8--x-x--x-x-8-8-8---8--8-8---------|
D|10--------------------------9--x-x--x-x-9-9-9---9--9-9---------|
A|----------------------------x--x-x--x-x------------------------|
E|----------------------------x--x-x--x-x------------------------|

  The way it feels...
e|x--x-x--x-x-----------------x--x-x--x-x------------------------|
B|x--x-x--x-x-10-10--8--10--8-x--x-x--x-x-7-7-9--10-10-9---------|
G|x--x-x--x-x--9--9--9---9--9-x--x-x--x-x-8-8-8---8--8-8---------|
D|x--x-x--x-x-10-10-10--10-10-x--x-x--x-x-9-9-9---9--9-9---------|
A|x--x-x--x-x-----------------x--x-x--x-x------------------------|
E|x--x-x--x-x-----------------x--x-x--x-x------------------------|

My heart...
e|x--x-x--x-x-----------------x--x-x--x-x------------------------|
B|x--x-x--x-x-11-11--8--11--8-x--x-x--x-x-7-7-10--7--------------|
G|x--x-x--x-x--9--9--9---9--9-x--x-x--x-x-8-8--8--8--8-----------|
D|x--x-x--x-x-10-10-10--10-10-x--x-x--x-x-9-9--9--9--9-----------|
A|x--x-x--x-x-----------------x--x-x--x-x------------------------|
E|x--x-x--x-x-----------------x--x-x--x-x------------------------|
 It's not...
e|x--x-x--x-x-----------------x--x-x--x-x------------------------|
B|x--x-x--x-x-10-10--8--10--8-x--x-x--x-x-7-7-9--10-10-9---------|
G|x--x-x--x-x--9--9--9---9--9-x--x-x--x-x-8-8-8---8--8-8---------|
D|x--x-x--x-x-10-10-10--10-10-x--x-x--x-x-9-9-9---9--9-9---------|
A|x--x-x--x-x-----------------x--x-x--x-x------------------------|
E|x--x-x--x-x-----------------x--x-x--x-x------------------------|

PRECHORUS 2

Same as Prechorus 1

CHORUS 2

Same as Chorus 1

BRIDGE
  Say your...     You might be...  You keep me... Waiting for...
e|2--------------5----------------8--------------7---------------|
B|3--------------5---------------10--------------8---------------|
G|4--------------5----------------9--------------9---------------|
D|4--------------7---------------10--------------9---------------|
A|2--------------7----------------0--------------7---------------|
E|---------------5-----------------------------------------------|

 I'm desperate... So far away...   I'm getting... Don't care...
e|2--------------5----------------8--------------7---------------|
B|3--------------5---------------10--------------7---------------|
G|4--------------5----------------9--------------8---------------|
D|4--------------7---------------10--------------9---------------|
A|2--------------7----------------0--------------9---------------|
E|---------------5-------------------------------7---------------|

BUILDUP AND FINAL CHORUS

  Why do you do what you do... Why won't you answer me...
e|---------------------------------------------------------------|
B|---------------------------------------------------------------|
G|---------------------------------------------------------------|
D|----5-5----------5-5--------------5-5------------5-5-----------|
A|5-7----------5-7-------------5-7-------------5-7---------------|
E|---------------------------------------------------------------|

This part keeps playing in the background from here on^

e|--x-x---5--5-x-5-5---x-x------------|
B|8-x-x-8-5--5-x-5-5-7-x-x-7-8--8--8-8|
G|9-x-x-9-5--5-x-5-5-7-x-x-7-9--9--9-9|Do the chorus part til the song ends!
D|9-x-x-9-7--7-x-7-7-7-x-x-7-9--9--9-9|
A|7-x-x-7-7--7-x-7-7-5-x-x-5-7--7--7-7|
E|--x-x--------x-------x-x------------|





Calificar esta versión:
Aviso: Este fichero es trabajo propio de su transcriptor y representa su interpretación personal de la canción. El material contenido en esta página es para exclusivo uso privado, por lo que se prohibe su reproducción o retransmisión, así como su uso para fines comerciales.
Más versiones de Misery, Maroon 5
Misery
acordes
Misery
tablatura
Descubre más canciones de Maroon 5