Coma White, Marilyn Manson (acordes)

Autor: antoniox13 | 38469 visualizaciones

amcfg


-----------------------------------------------------------|
--0-0-0-0-1-1---0-0-0-0-1-1--0-0-0-0-1-1-3-3-3-3-1-1-0-0---|
-2-2-2-2-2-----2-2-2-2-2----2-2-2-2-2----------------------|
-----------------------------------------------------------|
-----------------------------------------------------------|
-----------------------------------------------------------|

-----------------------------------------------------------|
--0-0-0-0-1-1---0-0-0-0-1-1--0-0-0-0-1-1-3-3-3-3-1-1-0-0---|
-2-2-2-2-2-----2-2-2-2-2----2-2-2-2-2----------------------|
-----------------------------------------------------------|
-----------------------------------------------------------|
-----------------------------------------------------------|


Am            C
Something is cold and blank 
G          F
behind her smile 
Am                C
She's standing on an overpass 
G              F
In her miracle mile 
[coma] 

Am              C
you were from a perfect world 
G                  F       Am    C 
A world that threw me away today today
G          F
Today to run away 

Am
A pill to make you numb 
C
A pill to make you dumb 
G                   F
A pill to make you anybody else 
Am                   C
But all the drugs in this world 
G                    F
Won't save her from herself 

Am               C
Her mouth was an empty cut 
G                      F
And she was waiting to fall 
Am                    C
Just bleeding like a polaroid 
G                  F
that Lost all her dolls 
[coma]: 


Am              C
you were from a perfect world 
G                  F       Am    C 
A world that threw me away today today
G          F
Today to run away 

Am
A pill to make you numb 
C
A pill to make you dumb 
G                   F
A pill to make you anybody else 
Am                   C
But all the drugs in this world 
G                    F
Won't save her from herself





Comentarios del colaborador: Mi email [email protected]

Calificar esta versión:
Aviso: Este fichero es trabajo propio de su transcriptor y representa su interpretación personal de la canción. El material contenido en esta página es para exclusivo uso privado, por lo que se prohibe su reproducción o retransmisión, así como su uso para fines comerciales.
Más versiones de Coma White, Marilyn Manson
Coma White
acordes
Coma White (ver 2)
acordes
Coma White
tablatura
Descubre más canciones de Marilyn Manson