Manuelita, Maria Elena Walsh (tablatura) (ver 2)

Autor: justi98 | 23566 visualizaciones



Manuelita - Maria Elena Walsh

Estrofas:

|---------------0-----|---------------|-------------0-|---------------|-------------0-0-|---------------|
|-0-1-3-0---------3-1-|-----------3-0-|-0-1-3-3-2-3---|---0-1---0-1-3-|-0-1-3-3-2-3-----|-1-0-----------|
|---------2-1-1-------|-2-0-----------|---------------|-2-----2-------|-----------------|-----2-0---2-0-|
|---------------------|-----4-0-0-----|---------------|---------------|-----------------|---------4-----|
|---------------------|---------------|---------------|---------------|-----------------|---------------|
|---------------------|---------------|---------------|---------------|-----------------|---------------|

Estribillo:

|------------------|---------------|-0-----------------|---------------|
|--------------0-0-|---0-1---0-1-3-|---3-1-0---3---0---|-1-0-----------|
|---0-2-2--0-2-----|-2-----2-------|---------2---2---0-|-----2-0---2-0-|
|-4----------------|---------------|-------------------|---------4-----|
|------------------|---------------|-------------------|---------------|
|------------------|---------------|-------------------|---------------|

Manuelita vivía en Pehuajó
pero un dia se marchó
Nadie supo bien por que
A Paris ella se fue,
un poquito caminando
y otro poquitito a pie.

Manuelita una vez se enamoró
de un tortugo que pasó.
Dijo que podré yo hacer ?
Vieja no me va a querer
en Europa y con paciencia
me podran embellecer.

En la tintoreria de Paris
la pintaron con barniz,
la plancharon en francés
del derecho y del revés,
le pusieron peluquita
y botines en los pies.

Tantos años tardó en cruzar el mar
que allí se volvió a arrugar,
y por eso regresó
vieja como se marchó,
a buscar a su tortugo
que la espera en Pehuajó.

Manuelita, Manuelita
Manuelita, donde vas
con tu traje de malaquita
y tu paso tan audaz.





Calificar esta versión:
Aviso: Este fichero es trabajo propio de su transcriptor y representa su interpretación personal de la canción. El material contenido en esta página es para exclusivo uso privado, por lo que se prohibe su reproducción o retransmisión, así como su uso para fines comerciales.
Más versiones de Manuelita, Maria Elena Walsh
Manuelita
acordes
Manuelita
tablatura
Manuelita (ver 2)
tablatura
Descubre más canciones de Maria Elena Walsh