El Hijo De La Inés, Marea (tablatura)

Autor: Anónimo | 45573 visualizaciones



Aqui mando la into y el punteo inicial.


E--------------------------------------------------------5---
B-------------------------5------------------------6-------6-
G-------------5-4-4s5-5---5-----------------5-4------5-------
D-5-5-5h7p5---5-5-5s7-7-7---7---5-5-5h7p5---5-5--7-----7-----   x2
A-----------7-----------------------------7------------------
E------------------------------------------------------------
  . .                   .   .   . .
P.m

Acompañamiento 1
   C         G       F
E------3---------3---1--------1--------   Arpegio para estos versos
B----5---5-----3-----1------1---1------
G--5---------4-------2----2-------2----   en el de fa aveces cambia un poko pero kasi no se nota
D-----------------------3-----------3--
A--------------------------------------
E--------------------------------------

Buscaré tu jaula a tientas, pa' que otra vez me mientas
y digas que no hay carbón, que manche mi almohada
que el alma me chilla, que salen astillas de mi corazón.

Punteo incial:

E-----------------------------------------------------------------------------------------------
B-----------------------------------------------------------------------------------------------
G---------------5--------5~~~---7b8--7p5h7~~-----------------------------------------5-5-7-7----
D-------------0---5-5/7----------------------/7-10-9-7--5---5-5h7p5-5-5-5--5h7-7/9-9------------
A-------3-5-5---------------------------------------------7-------------------------------------
E---3-5-----------------------------------------------------------------------------------------

E--------------------------------------------
B--------8-----------------------------------
G----7b9---7b~~------5h7-5-------------------
D-----------------77-------7-6-5-------------
A--------------------------------7-6---------
E------------------------------------8-------
P.m               ..

Los siguientes versos van con el Acompañamiento 1 y luego entra la parte electrica que ya mandare.





Calificar esta versión:
Aviso: Este fichero es trabajo propio de su transcriptor y representa su interpretación personal de la canción. El material contenido en esta página es para exclusivo uso privado, por lo que se prohibe su reproducción o retransmisión, así como su uso para fines comerciales.
Más versiones de El Hijo De La Inés, Marea
El Hijo De La Inés
acordes
El Hijo De La Inés
tablatura
El Hijo De La Inés (ver 2)
tablatura
Descubre más canciones de Marea