Como El Viento De Poniente, Marea (tablatura)

Autor: Anónimo | 43504 visualizaciones



Hacía mucho que no subía cosas... Falta de tiempo...
Vuelvo con un tema de esta gran banda española...
Faltan los punteos de la intro y el solo, pero los versos
están completos, con sus respectivos arreglos...
Cualquier cosa, me avisan...


****
El 1/4 en las estiradas, significa que hay que estirar justamente
un cuarto de nota.
****

Saludos
fotolog.com/lei77o

======================================================
Como el viento de poniente
MAREA


Riff

    B  B D B D B A B  B D B D B A B
e|-------------------------------------|
B|-------------------------------------|
G|-------7---7----------7---7----------|
D|--9--9-7-9-7-9-7-9--9-7-9-7-9-7-9----|
A|--9--9---9---9-7-9--9---9---9-7-9----|
E|-------------------------------------|


INTRO:
B G A Riff
B G A B D A
B G A Riff


B                     G                          A
De niño no me gustaban los libros ni las sotanas
                      [B   D  A ] (sobre arreglo)
ni salir en procesión

 [ Arreglo ]
e|--------------------------------|
B|--------------------------------|
G|-------7------------------------|
D|--/9~~---9-7--------------------|
A|-------------9-7----------------|
E|-----------------7~~------------|

B                    G                           A
Era tan desobediente como el viento de poniente,
                   B      D  A
revoltoso y juguetón

B                          G
En vez de mirar pa´l cielo,
                       A                   [ B     D   A ]
me puse a medir el suelo que me tocaba de andar

 [ Arreglo ]
    1/4     1/4    1/4
e|-10b~~-7-----7------------------|
B|---------10b---10b--------------|
G|-----------------------9-7~~----|
D|---------------------9----------|
A|--------------------------------|
E|--------------------------------|

B                          G
Y nunca seguí el rebaño,
                            A                 B    G
porque ni el pastor ni el amo eran gente de fiar


D                          A
Como aquel que calla, otorga,
                             B
y aunque la ignorancia es sorda,
                  G
pude levantar la voz
D                      A                         B
Más fuerte que los ladríos de los perros consentíos
                    G              A
y que la voz del pastor... del pastor...


B G A Riff


B                       G                   A                   [ B  D A ]
Empecé haciendo carreras por atajos y veredas muy estrechas para mí

 [ Arreglo ]
e|-----------------------------------|
B|------------------7----------------|
G|-------7---7-9b11---9b11r9-7-------|
D|--/9~~---9-------------------9~~---|
A|-----------------------------------|
E|-----------------------------------|

B                     G
Y decían mis vecinos
                      A                B   D  A
que llevaba mal camino apartado del redil

B                          G
Siempre fui esa oveja negra
                             A                 [ B   D A ]
que supo esquivar las piedras que le tiraban a dar

 [ Arreglo ]
    1/4  1/4  1/4
e|--------------------------------|
B|-10b-7----7---------------------|
G|-------9b---9b---7--------------|
D|---------------9---9~~----------|
A|--------------------------------|
E|--------------------------------|

B                           G
y entre más pasan los años
                        A                      B    G
más me aparto del rebaño porque no sé a donde va.


D                          A
Como aquel que calla, otorga,
                             B
y aunque la ignorancia es sorda,
                  G
pude levantar la voz
D                      A                         B
Más fuerte que los ladríos de los perros consentíos
                    G              A
y que la voz del pastor... del pastor...


SOLO


D                          A
Como aquel que calla, otorga,
                             B
y aunque la ignorancia es sorda,
                  G
pude levantar la voz
D                      A                         B
Más fuerte que los ladríos de los perros consentíos
                    G              A        Riff
y que la voz del pastor... del pastor...





Calificar esta versión:
Aviso: Este fichero es trabajo propio de su transcriptor y representa su interpretación personal de la canción. El material contenido en esta página es para exclusivo uso privado, por lo que se prohibe su reproducción o retransmisión, así como su uso para fines comerciales.
Más versiones de Como El Viento De Poniente, Marea
Como El Viento De Poniente
acordes
Como El Viento De Poniente
tablatura
Descubre más canciones de Marea