Al Rey, Marcos Witt (tablatura)

Autor: Anónimo | 17470 visualizaciones

Esta canciòn esta genial y esta un poco facil, asì que disfrutenla.

Intro: SOLm-FA -RE# -RE   

   SOLm   FA       RE#    REsus4 RE 
Al Rey Hossana, al Rey alelu.....ya  

Aqui el bajo y la guitarra hacen esto:
e/--------------------
B/--------------------
G/---------5----------
D/----4-7-----8-7--5--
A/--5-----------------
E/--------------------

La estrofa tiene estos acordes

                          SOLm    
    Me ha enseñado su grandeza   (Aqui biene el Riff 1)
FA                      SIb      
    Me ha mostrado su belleza    (Aqui el Riff 2)
RE                     SOLm
    Me vistió de su realeza 
       FA      SIb  RE#     RE 
    De su salvación yo cantaré....

                       SOLm    
    Ha cambiado mi tristeza   (Aqui el Riff 3) 
FA                 SIb     
    Ha ungido mi cabeza       ( el Riff 4)
RE                    SOLm
    Me cubrió de su belleza
       FA      SIb  RE#     RE 
    De su redención yo cantaré

Estribillo
       DOm           SOLm
Yo me asombro me maravillo
     RE                SOLm  SOLm7
Y derramo mi canto en honor a Él
       DOm          SOLm
No hay nadie mas glorioso
       LA           RE
Tan hermoso como mi Rey


Riff 1
e/----------------------
B/----------------------
G/-------2-3-5--3-2-----
D/--4-5-------------5-3-
A/----------------------
E/----------------------

Riff 2
e/-----------------------
B/--3--3-3-4-4-4-3-------
G/-----------------5-3-2-
D/-----------------------
A/-----------------------
E/-----------------------

Riff 3
e/------------------
B/------------------
G/----2-3--2--------
D/--5--------5-3----
A/------------------
E/------------------

Riff 4
e/---------------------
B/--3--6-4-3-----------
G/-----------5-3-2-----
D/-----------------5-4-
A/---------------------
E/---------------------


Espero que les guste, si tienen dudas escribanme a:
rodri108@latinmail.com
Calificar esta versión:
Aviso: Este fichero es trabajo propio de su transcriptor y representa su interpretación personal de la canción. El material contenido en esta página es para exclusivo uso privado, por lo que se prohibe su reproducción o retransmisión, así como su uso para fines comerciales.
Más versiones de Al Rey, Marcos Witt
Al Rey
acordes
Al Rey (ver 2)
acordes
Al Rey
tablatura
Al Rey (ver 2)
tablatura
Al Rey (ver 3)
tablatura
Al Rey
bajo
Descubre más canciones de Marcos Witt