Niente Di Niente, Marco Di Mauro (tablatura)

Autor: dfbonnet | 25794 visualizaciones

Niente di niente - Marco di Mauro                                   


                                                                         Am / Bm
Introduzione Piano:



     Am                       Dm                        F                      
     E.  E.  Q    E  E  E     H.           E   S  S     H.           E   S  S  
E||--8---7---5----3--1--0--|--1---------------10-12-|-------------------10-12-|
B||--5---5---5----1--1--0--|--3----------------8-10-|--------------------8-10-|
G||------------------------|------------------------|--10---------------------|
D||------------------------|------------------------|--10---------------------|
A||------------------------|------------------------|-------------------------|
E||------------------------|------------------------|-------------------------|


   E7                                                         
   H        H          
---------------------|
--10--------9--------|
---9--------9--------|
---------------------|
---------------------|
---------------------|




Intermedio chitarra elettrica:

   Am   Asus2 Am   A7    
   Q    Q     Q    Q     
|------------------0----|
|-------0-----1---------|
|--2--------------------|
|-----------------------|
|-----------------------|
|-----------------------|


  Em                           A7                       
  E  S E  S E  S E  S E  E     E  S E  S Q    E  E  E   
-------------------------3--|----------0-5----2--5--7--|
--3--2-3--2-3--2-3--2-3-----|--3--2-3------------------|
----------------------------|--------------------------|
----------------------------|--------------------------|
----------------------------|--------------------------|
----------------------------|--------------------------|


  D                         Bm                                      
  Q.     S S E  E  E  E     Q.     H        E   
--9------9-7-5--2--5--7--|--7------------------|
-------------------------|---------------------|
-------------------------|---------------------|
-------------------------|---------------------|
-------------------------|---------------------|
-------------------------|---------------------|



Finale:
                                                         Bm                 
   E  Q    Q    E   E  E      Q    E  Q    E   E  E      W                  
--10--9----7----9--10--9--|--10----9--7----9--10--9--|--10----------------||
--10--9----7----9--10--9--|--10----9--7----9--10--9--|--12----------------||
--------------------------|--------------------------|--11----------------||
--------------------------|--------------------------|--12----------------||
--------------------------|--------------------------|--------------------||
--------------------------|--------------------------|--------------------||




Melodia



     Am                  Dm                  F                 
     W                   W                   W                 
E||-------------------|-------------------|-------------------|
B||-------------------|-------------------|-------------------|
G||-------------------|-------------------|-------------------|
D||-------------------|-------------------|-------------------|
A||-------------------|-------------------|-------------------|
E||-------------------|-------------------|-------------------|


                             Con ques- ta can- zo-  
  E7                  Dm                            
  W                   Q.     E   E     E  E    E    
-------------------|-------------------0--1----8---|
-------------------|---------3---3-----------------|
-------------------|-------------------------------|
-------------------|-------------------------------|
-------------------|-------------------------------|
-------------------|-------------------------------|


     ne     io vo- rrei tan-       to_in- na- mo- rar- ti  di  
  G7                            C                              
  E  Q.     E  E   E    E       E  E      E   E   E.   E.  E   
--L--7-------------0----7----|--L--8------7---8---7----3---0--|
------------1--3-------------|--------------------------------|
-----------------------------|--------------------------------|
-----------------------------|--------------------------------|
-----------------------------|--------------------------------|
-----------------------------|--------------------------------|


  me-                           Dir- ti che sen-  
  Am                   Dm                         
  H        H           H        E    E  E   E     
--5-----------------|----------------0--1---8----|
--------------------|-----------3----------------|
--------------------|----------------------------|
--------------------|----------------------------|
--------------------|----------------------------|
--------------------|----------------------------|


     to,   in og- ni mo- men-       to_s- ta- re vi- ci- no_a  
  G7                             C                             
  E  E.  S E  E   E  E   E       E  E     E   E  E.  E.  E     
--L--7---------------0---7----|--L--8-----7---8--7---3---0----|
-----------1--1---3-----------|-------------------------------|
------------------------------|-------------------------------|
------------------------------|-------------------------------|
------------------------------|-------------------------------|
------------------------------|-------------------------------|


  te              Che    fo- sse le ca- re-  zze, che  
  Am                     Dm                            
  H        Q.     E      E   S   E  S   Q    Q    E    
--5---------------0---|--8---8---8--7---7----5----0---|
----------------------|-------------------------------|
----------------------|-------------------------------|
----------------------|-------------------------------|
----------------------|-------------------------------|
----------------------|-------------------------------|


  io ti vo- rrei da- re      Che     fo- sse le pa- ro-  le che non  ho_il 
  E7                                 Am                                    
  E  S  E   S    E   Q    E  E       E   S   E  S   Q    E  S   E    S     
--8--8--8---7----7---7-------0---|--10--10--10--8---8----8--8---8---10----|
---------------------------------|----------------------------------------|
---------------------------------|----------------------------------------|
---------------------------------|----------------------------------------|
---------------------------------|----------------------------------------|
---------------------------------|----------------------------------------|


       co- ra-ggio_a di- re- e      Che    più_o me- no  fa- re- bbe- ro  co-  
                                           Dm                                  
   E   S   E  S      E.  S   Q    S S      E     S   E.  S   E.  S    E.  E    
---L--10--10--8------8---7---5------5---|--8-----8---8---7---7---5----8---5---|
----------------------------------------|-------------------------------------|
----------------------------------------|-------------------------------------|
----------------------------------------|-------------------------------------|
----------------------------------------|-------------------------------------|
----------------------------------------|-------------------------------------|


  sì                                Che non c'è 
  E7                                            
  H.           Q       H        E   E   E   E   
--7-----------------|--------------12--12--10--|
--------------------|--------------------------|
--------------------|--------------------------|
--------------------|--------------------------|
--------------------|--------------------------|
--------------------|--------------------------|


  nien- te che mi dia  ne la  me-   tà Di tu- tto que- llo che  sei 
  Dm                                G7                              
  E     S  E   S  Q    E  E   E     E  S  E   S   Q    E   E    E   
--8-----7--8---7--8----7--8--13--|--8--7--8---7---8----7---8---13--|
---------------------------------|---------------------------------|
---------------------------------|---------------------------------|
---------------------------------|---------------------------------|
---------------------------------|---------------------------------|
---------------------------------|---------------------------------|


  già- Quan- do mi vol- to_e tu mi    guar- di           Non  
  C                                   Am                      
  E    S     E  S  Q    E    E  E     E.    H        E.  E    
--7----5-----7--5--7----5----7--0--|--7-----8------------5---|
-----------------------------------|-------------------------|
-----------------------------------|-------------------------|
-----------------------------------|-------------------------|
-----------------------------------|-------------------------|
-----------------------------------|-------------------------|


  cam- bie- rei ti giu- ro ve- ra-    men- te       Il tuo so-    rri- so  per  
  Dm                                  E7                          Am            
  E    S    E   S  Q    E  E   E      E.   Q.     S E  E   E      E.   E.  E    
--5----4----5---4--5----4--5---7---|--5----4--------7--7---0---|--7----8---0---|
-----------------------------------|---------------------------|---------------|
-----------------------------------|---------------------------|---------------|
-----------------------------------|---------------------------|---------------|
-----------------------------------|---------------------------|---------------|
-----------------------------------|---------------------------|---------------|


  nien- te  di    nien- te        Che sei già 
  Am              A7                          
  E.    E.  E     E.    Q.     S  E   E   E   
--7-----8---0--|--7-----9--------12--12--10--|
---------------|-----------------------------|
---------------|-----------------------------|
---------------|-----------------------------|
---------------|-----------------------------|
---------------|-----------------------------|


  tu- tto tu- tto quel che vo-  glio   io E tu- tto quel che chie-  do_a 
  Dm                                   G7                                
  E   S   E   S   Q    E   E    E      E  S E   S   Q    E   E      E    
--8---7---8---7---8----7---8---13---|--8--7-8---7---8----7---8-----13---|
------------------------------------|-----------------------------------|
------------------------------------|-----------------------------------|
------------------------------------|-----------------------------------|
------------------------------------|-----------------------------------|
------------------------------------|-----------------------------------|


  Dio- Ti_as- pe- tte- rò   qui con pa-    zien- za           Di  
  C                                        Am                     
  E    S      E   S    Q    E   E   E      E.    H        E.  E   
--7----5------7---5----7----5---7---0---|--7-----8------------5--|
----------------------------------------|------------------------|
----------------------------------------|------------------------|
----------------------------------------|------------------------|
----------------------------------------|------------------------|
----------------------------------------|------------------------|


  te io già non ries- co_a_s- ta- re    sen- za       Che tu sei  
  Dm                                    E7                        
  E  S  E   S   Q     E       E   E     E.   Q.     S E   E  E    
--5--4--5---4---5-----4-------5---7--|--5----4--------7---7--0---|
-------------------------------------|---------------------------|
-------------------------------------|---------------------------|
-------------------------------------|---------------------------|
-------------------------------------|---------------------------|
-------------------------------------|---------------------------|


  tu- tto_il res- to_è    nien- te  di    nien- te              
  Am                      Am              Am                    
  E   S      E.   E       E.    E.  E     E.    H.           S  
--7---8------8----0----|--7-----8---0--|--7-----8--------------|
-----------------------|---------------|-----------------------|
-----------------------|---------------|-----------------------|
-----------------------|---------------|-----------------------|
-----------------------|---------------|-----------------------|
-----------------------|---------------|-----------------------|


         Con ques- ta can- zo-       ne,    io vo- rrei tan-  
  Dm                              G7                          
  Q.     E   E     E  E    E      E  Q.     E  E   E    E     
-------------------0--1----8---|--L--7-------------0----7----|
---------3---3-----------------|------------1--3-------------|
-------------------------------|-----------------------------|
-------------------------------|-----------------------------|
-------------------------------|-----------------------------|
-------------------------------|-----------------------------|


     to dar- ti tu- tto di    me                          E  dir- ti che sem-  
  C                           Am                   Dm                          
  E  E  E    E  E.  E.  E     H        H           Q.     E  E    E  E   E     
--L--8--7----8--7---3---0--|--5-----------------|-----------------0--1---8----|
---------------------------|--------------------|---------3--3----------------|
---------------------------|--------------------|-----------------------------|
---------------------------|--------------------|-----------------------------|
---------------------------|--------------------|-----------------------------|
---------------------------|--------------------|-----------------------------|


     pre,   ques- te pa- ro-       le son sol- tan- to  per  
  G7                            C                            
  E  Q.     E     E  E   E      E  E  E   E    E.   E.  E    
--L--7---------------0---7---|--L--8--7---8----7----3---0---|
------------1-----3----------|------------------------------|
-----------------------------|------------------------------|
-----------------------------|------------------------------|
-----------------------------|------------------------------|
-----------------------------|------------------------------|


  te-             Vo-    rrei che ti fa- ce-  sse, vo-  
  Am                     Dm                             
  H        Q.     E      E    S   E  S   Q    Q    E    
--5---------------0---|--8----8---8--7---7----5----0---|
----------------------|--------------------------------|
----------------------|--------------------------------|
----------------------|--------------------------------|
----------------------|--------------------------------|
----------------------|--------------------------------|


  la- re_al- to nel cie- lo-     Per- ché  
  E7                                       
  E   S      E  S   E    Q    E  S    S    
--8---8------8--7---7----7-------0----0---|
------------------------------------------|
------------------------------------------|
------------------------------------------|
------------------------------------------|
------------------------------------------|


   da  li ve-de- ssi  quan- to è   pi-        cco- lo da- vve- ro- o      Il  
   Am                                                                         
   E   S  E  S   Q    E     S  E   S      E   S    E  S   E.   S   Q    S S   
--10--10-10--8---8----8-----8--8--10--|---L--10---10--8---8----7---5------5--|
--------------------------------------|--------------------------------------|
--------------------------------------|--------------------------------------|
--------------------------------------|--------------------------------------|
--------------------------------------|--------------------------------------|
--------------------------------------|--------------------------------------|


  mon- do quan- do tu   sei qui con    me                 
  Dm                                   E7                 
  E    S  E     S  Q    E   E   E      H.           Q     
--8----8--8-----7--7----5---8---5---|--7-----------------|
------------------------------------|--------------------|
------------------------------------|--------------------|
------------------------------------|--------------------|
------------------------------------|--------------------|
------------------------------------|--------------------|


               Che non c'è   nien- te che mi dia  ne la  me- 
                             Dm                              
  H        E   E   E   E     E     S  E   S  Q    E  E   E   
--------------12--12--10--|--8-----7--8---7--8----7--8--13--|
--------------------------|---------------------------------|
--------------------------|---------------------------------|
--------------------------|---------------------------------|
--------------------------|---------------------------------|
--------------------------|---------------------------------|


  tà Di tu- tto que- llo che  sei   già- Quan- do mi vol- to_e tu mi  
  G7                                C                                 
  E  S  E   S   Q    E   E    E     E    S     E  S  Q    E    E  E   
--8--7--8---7---8----7---8---13--|--7----5-----7--5--7----5----7--0--|
---------------------------------|-----------------------------------|
---------------------------------|-----------------------------------|
---------------------------------|-----------------------------------|
---------------------------------|-----------------------------------|
---------------------------------|-----------------------------------|


  guar- di           Non    cam- bie- rei ti giu- ro ve- ra-  
  Am                        Dm                                
  E.    H        E.  E      E    S    E   S  Q    E  E   E    
--7-----8------------5---|--5----4----5---4--5----4--5---7---|
-------------------------|-----------------------------------|
-------------------------|-----------------------------------|
-------------------------|-----------------------------------|
-------------------------|-----------------------------------|
-------------------------|-----------------------------------|


  men- te       Il tuo so-    rri- so  per    nien- te  di  
  E7                          Am              Am            
  E.   Q.     S E  E   E      E.   E.  E      E.    E.  E   
--5----4--------7--7---0---|--7----8---0---|--7-----8---0--|
---------------------------|---------------|---------------|
---------------------------|---------------|---------------|
---------------------------|---------------|---------------|
---------------------------|---------------|---------------|
---------------------------|---------------|---------------|


  nien- te        Che sei già   tu- tto tu- tto quel che vo-  glio 
  A7                            Dm                                 
  E.    Q.     S  E   E   E     E   S   E   S   Q    E   E    E    
--7-----9--------12--12--10--|--8---7---8---7---8----7---8---13---|
-----------------------------|------------------------------------|
-----------------------------|------------------------------------|
-----------------------------|------------------------------------|
-----------------------------|------------------------------------|
-----------------------------|------------------------------------|


  io E tu- tto quel che chie-  do_a   Dio- Ti_as- pe- tte- rò   qui con pa-  
  G7                                  C                                      
  E  S E   S   Q    E   E      E      E    S      E   S    Q    E   E   E    
--8--7-8---7---8----7---8-----13---|--7----5------7---5----7----5---7---0---|
-----------------------------------|----------------------------------------|
-----------------------------------|----------------------------------------|
-----------------------------------|----------------------------------------|
-----------------------------------|----------------------------------------|
-----------------------------------|----------------------------------------|


  zien- za           Di    te io già non ries- co_a_s- ta- re  
  Am                       Dm                                  
  E.    H        E.  E     E  S  E   S   Q     E       E   E   
--7-----8------------5--|--5--4--5---4---5-----4-------5---7--|
------------------------|-------------------------------------|
------------------------|-------------------------------------|
------------------------|-------------------------------------|
------------------------|-------------------------------------|
------------------------|-------------------------------------|


  sen- za       Che tu sei    tu- tto_il res- to_è    nien- te  di  
  E7                          Am                      Am            
  E.   Q.     S E   E  E      E   S      E.   E       E.    E.  E   
--5----4--------7---7--0---|--7---8------8----0----|--7-----8---0--|
---------------------------|-----------------------|---------------|
---------------------------|-----------------------|---------------|
---------------------------|-----------------------|---------------|
---------------------------|-----------------------|---------------|
---------------------------|-----------------------|---------------|


  nien- te                                                        
  Am    Asus2    Am   A7    Em                  A7                
  E.    H        Q    S     W                   W                 
--7-----8--------L----L--|-------------------|-------------------|
-------------------------|-------------------|-------------------|
-------------------------|-------------------|-------------------|
-------------------------|-------------------|-------------------|
-------------------------|-------------------|-------------------|
-------------------------|-------------------|-------------------|


                      Oh...           Non    cam- bie- rei ti giu- ro ve- ra-  
  D                   Bm                     Em                                
  W                   H.           E  E      E    S    E   S  Q    E  E   E    
-------------------|--7---------------7---|--7----6----7---6--7----6--7---9---|
-------------------|----------------------|-----------------------------------|
-------------------|----------------------|-----------------------------------|
-------------------|----------------------|-----------------------------------|
-------------------|----------------------|-----------------------------------|
-------------------|----------------------|-----------------------------------|


  men- te       Il tuoi so-    rri-  so  per    nien-  te  di  
  F#7                          Bm               Bm             
  E.   Q.     S E  E    E      E.    E.  E      E.     E.  E   
--7----6--------9--9--------|--9----10-------|--9-----10------|
------------------------7---|------------7---|-------------7--|
----------------------------|----------------|----------------|
----------------------------|----------------|----------------|
----------------------------|----------------|----------------|
----------------------------|----------------|----------------|


  nien-  te        Che sei già    tu-tto  tu-tto  quel che  vo- glio 
  B7                              Em                                 
  E.     Q.     S  E   E   E      E  S    E  S    Q    E    E   E    
--9-----11--------14--14--12--|--10--9---10--9---10----9---10--15---|
------------------------------|-------------------------------------|
------------------------------|-------------------------------------|
------------------------------|-------------------------------------|
------------------------------|-------------------------------------|
------------------------------|-------------------------------------|


   io E  tu-tto  quel che  chie- do_a   Dio- Ti_as- pe- tte- rò   qui con pa-  
   A7                                   D                                      
   E  S  E  S    Q    E    E     E      E    S      E   S    Q    E   E   E    
--10--9-10--9---10----9---10----15---|--9----7------9---7----9----7---9-------|
-------------------------------------|------------------------------------7---|
-------------------------------------|----------------------------------------|
-------------------------------------|----------------------------------------|
-------------------------------------|----------------------------------------|
-------------------------------------|----------------------------------------|


  zien-  za           Di    te io già non ries- co_a_s- ta- re  
  Bm                        Em                                  
  E.     H        E.  E     E  S  E   S   Q     E       E   E   
--9-----10------------7--|--7--6--7---6---7-----6-------7---9--|
-------------------------|-------------------------------------|
-------------------------|-------------------------------------|
-------------------------|-------------------------------------|
-------------------------|-------------------------------------|
-------------------------|-------------------------------------|


  sen- za       Che tu sei    tu-  tto_il res-to_è    nien-  te  di  
  F#7                         Bm                      Bm             
  E.   Q.     S E   E  E      E    S      E.  E       E.     E.  E   
--7----6--------9---9------|--9---10-----10--------|--9-----10------|
-----------------------7---|------------------7----|-------------7--|
---------------------------|-----------------------|----------------|
---------------------------|-----------------------|----------------|
---------------------------|-----------------------|----------------|
---------------------------|-----------------------|----------------|


  nien-  te.                                                       
  Bm                                            Bm                 
  E.     H.            S    W                   W                  
--9-----10-------------L-|-------------------|-------------------||
-------------------------|-------------------|-------------------||
-------------------------|-------------------|-------------------||
-------------------------|-------------------|-------------------||
-------------------------|-------------------|-------------------||
-------------------------|-------------------|-------------------||


Trascrizione: Diego Bonnet - dfbonnet@yahoo.com




Duration Legend
---------------
W - whole
H - half
Q - quarter
E - 8th
S - 16th
T - 32nd
X - 64th
. - note dotted
|-n-|  - n-tuplets


Tablature Legend
----------------
L - tied note
x - dead note
g - grace note
(n) - ghost note
> - accentuded note
NH - natural harmonic
AH - artificial harmonic
TH - tapped harmonic
SH - semi harmonic
PH - pitch harmonic
h - hammer on
p - pull off
b - bend
br - bendRelease
pb - preBend
pbr - preBendRelease
brb - bendReleaseBend
\n/ - tremolo bar dip
\n - tremolo bar dive
-/n - tremolo bar Release up
/n\ - tremolo bar inverted dip
/n - tremolo bar return
-\n - tremolo bar Release down
S - shift slide
s - legato slide
/ -  slide into from below or out of upwards
\ -  slide into from above or out of downwards
~ - vibrato
W - wide vibrato
tr - trill
TP - tremolo picking
T - tapping
S - slap
P - pop
< - fade in
^ - brush up
v - brush down
Calificar esta versión:
Aviso: Este fichero es trabajo propio de su transcriptor y representa su interpretación personal de la canción. El material contenido en esta página es para exclusivo uso privado, por lo que se prohibe su reproducción o retransmisión, así como su uso para fines comerciales.
Más versiones de Niente Di Niente, Marco Di Mauro
Niente Di Niente
acordes
Niente Di Niente
tablatura
Descubre más canciones de Marco Di Mauro