Nada De Nada, Marco Di Mauro (tablatura) (ver 3)

Autor: Xz0n3 | 34791 visualizaciones



ola pos aca esta la transcripcion esta rola esta muy chida se la dedico a una linda llamada karen lorena 
de puebla de su amante ,le agregue el intro el solo del piano del final tiene alguans fallas pero esta bien 



INTRO:

   Am                            Dm                  F
e|-8-----7-----5---------------|-------------|-10-12-------------|
B|-----5-----5-------8-----6-5-|-6~-------5~-|-------8-------10~-|
G|---5-----5-------5-----5-----|-------7~----|------------10-----|
D|---------------7-----7-------|----7~-------|---------10--------|
A|-0~--------------------------|-5~----------|-------8-------8---|
E|-----------------------------|-------------|-------------------|

         E7
e|-10-12--------7-|
B|-------11-------|
G|------------7---|
D|----------9-----|
A|-------7--------|
E|----------------|


[1]
Dm7            G             C                     F
  Quisiera cantarte una canción que te enamore de mí,
Dm7             G                  Cmaj7                    F
  Te diga qué siento, te diga quién soy y cuánto te haré feliz


[2]
     Dm                       E
Que fueran las caricias que yo quisiera darte,
     Am           Am/G           F
Que fueran las palabras que no me animo a decirte
Dm7                        E  Esus4  E
Que más o menos sonarían así


[3]
          Dm
No existe nada que me dé
         G                        C
Ni la mitad de todo lo que tú me das
                       F
Cuando descubres mi mirada,
    Dm                      E
No cambiaria ni loco tu sonrisa,
            Am          Am7     A7
Por todo el mundo, por nada de nada


[3a]
            Dm                        G
Que ya eres todo, todo lo que quiero yo,
                       C   Cmaj7
Y todo lo que pido a Dios,
                          F
Te esperaría aquí con paciencia,
    Dm                        E
No cambiaría un minuto tu presencia,
            Am          Am7     Am
Por todo el mundo, por nada de nada


[1]
Quisiera cantarte una canción que fuera sólo de ti,
Que con las palabras, de los demás no se pueda confundir


[2]
Quisiera que te hiciera volar alto en el cielo,
Para que desde allí vieras qué pequeño se hace el mundo
Si solo estamos juntos tú y yo


[3]
No existe nada que me dé
Ni la mitad de todo lo que tú me das
Cuando descubres mi mirada,
No cambiaria ni loco tu sonrisa,
Por todo el mundo, por nada de nada


[3a]
Que ya eres todo, todo lo que quiero yo,
Y todo lo que pido a Dios,
Te esperaría aquí con paciencia,
No cambiaría un minuto tu presencia,                       Sólo se
            Am          Am7     [Am] [B/D] [C] [C#m7-5] <-- rasguean 1
Por todo el mundo, por nada de nada...                     vez.


SOLO:

   Em7                   A                            D
e|---------------------|------------|------------------------------|
B|-------------------8-|------------|------10-12p10-12b14-14b12-10-|
G|-7-6-7-6-7-6-7-6-7---|-7-6-7-9-9~-|-9/11-------------------------|
D|---------------------|------------|------------------------------|
A|---------------------|------------|------------------------------|
E|---------------------|------------|------------------------------|
NOTA: donde dice
e|-------------|
B|-12b14-14b12-|
G|-------------|
el efecto se logra tocando el traste 12 y estirando la cuerda hacia
arriba hasta que suene como si pisáramos el traste 14. Luego se toca
la cuerda estirada en el traste 12 y se regresa a su estado normal.

        G
e|----------------------------------|
B|------10-12-12-10-12b13b12b13b12~-| <-- Mismo efecto sólo que se
G|-9h11-----------------------------|     toca la cuerda una sóla vez
D|----------------------------------|     y se mantiene el sonido
A|----------------------------------|     estirándola varias veces.
E|----------------------------------|


    Em                     F#
No cambiaría ni loco tu sonrisa,
             Bm         Bm7     B7
Por todo el mundo, por nada de nada


             Em7                      A
Que ya eres todo, todo lo que quiero yo,
                       D
Y todo lo que pido a Dios,
                          G       D/F#
Te esperaría aquí con paciencia,
    Em                        F#
No cambiaría un minuto tu presencia,
             Bm         Bm7     Bm
Por todo el mundo, por nada de nada


FINAL:

   Bm
e|-------------|-------------|----|
B|-3-2---2-3-2-|-3-2---2-3-2-|----|
G|-4---4---4---|-4---4---4---|-4~-|
D|---4---4-----|---4---4-----|-4~-|
A|-2---2---2---|-2---2---2---|-2~-|
E|-------------|-------------|----|
dudas o comentarios consulten mi correo 
[email protected]





Calificar esta versión:
Aviso: Este fichero es trabajo propio de su transcriptor y representa su interpretación personal de la canción. El material contenido en esta página es para exclusivo uso privado, por lo que se prohibe su reproducción o retransmisión, así como su uso para fines comerciales.
Más versiones de Nada De Nada, Marco Di Mauro
Nada De Nada
acordes
Nada De Nada (ver 2)
acordes
Nada De Nada
tablatura
Nada De Nada (ver 2)
tablatura
Nada De Nada (ver 3)
tablatura
Descubre más canciones de Marco Di Mauro