Pensaba En Tí, Marcela Gandara (tablatura)

Autor: Anónimo | 44325 visualizaciones



cOlOquen el capO en el 3er. Traste
y desde ahi cuenta la Tablatura...


Intro:
(2 veces)

   Ebadd2    Bb/D        Cm7        Ab
e-|-------3---------------------3---------------
B-|----------3-------3--1----------1------1-----
G-|-----0----------0----------2---------2----2--
D-|---2----------0----------2---------3---------
A-|-3------3---2------2---0------0--------------
E-|----------------------------------1-----1----


   Ebadd2    Bb/D        Cm7         Ab
e-|-------3---------------------3-------
B-|----------3-------3--1----------1----
G-|-----0----------0----------2------2--
D-|---2----------0----------2--------3--
A-|-3------3---2------2---0------0------
E-|----------------------------------1--


I Estrofa:

   Ebadd2    Bb/D        Cm7        Ab
  Hoy me des...con...con el sol
e-|-------3---------------------3---------------
B-|----------3-------3--1----------1------1-----
G-|-----0----------0----------2---------2----2--
D-|---2----------0----------2---------3---------
A-|-3------3---2------2---0------0--------------
E-|----------------------------------1-----1----

   Ebadd2    Bb/D        Cm7
  Aunque ha... se escu...canción
e-|-------3---------------------3----------3-----
B-|----------3-------3--1----------1----------1--
G-|-----0----------0----------2----------2-------
D-|---2----------0----------2----------2---------
A-|-3------3---2------2---0----------0-----------
E-|----------------------------------------------

    Ab                     Eb
    Lleno...colores y de luz
e-|-----------------------------0---------0---
B-|-------1----------1------------1---------1-
G-|-----2---2------2---2------0---------0-----
D-|---3----------3----------2---------2-------
A-|-----------------------3---------3---------
E-|-1----------1------------------------------

    F7+9/A                   Bb6
Pues Pensaba en ti, Pensaba en ti
   e-|-------0----------0----------0-----
   B-|---------1----------1-----------1--
   G-|-----2----------2----------0-----2-
   D-|---0----------0----------0---------
   A-|-----------------------------------
   E-|-2----------2----------3-----------

   Ebadd2    Bb/D        Cm7        Ab
Fueron me...  que es...mi corazón
e-|-------3---------------------3---------------
B-|----------3-------3--1----------1------1-----
G-|-----0----------0----------2---------2----2--
D-|---2----------0----------2---------3---------
A-|-3------3---2------2---0------0--------------
E-|----------------------------------1-----1----

   Ebadd2    Bb/D        Cm7
  LA Crea...A ti...  al unisonó
e-|-------3---------------------3----------3-----
B-|----------3-------3--1----------1----------1--
G-|-----0----------0----------2----------2-------
D-|---2----------0----------2----------2---------
A-|-3------3---2------2---0----------0-----------
E-|----------------------------------------------

    Ab                     Eb
   Anunciando...de la creación
e-|-----------------------------0---------0---
B-|-------1----------1------------1---------1-
G-|-----2---2------2---2------0---------0-----
D-|---3----------3----------2---------2-------
A-|-----------------------3---------3---------
E-|-1----------1------------------------------

    F7+9/A                   Bb6
Pues Pensaba en ti, Pensaba en Tí
   e-|-------0----------0----------0-----
   B-|---------1----------1-----------1--
   G-|-----2----------2----------0-----2-
   D-|---0----------0----------0---------
   A-|-----------------------------------
   E-|-2----------2----------3-----------


C O R O:

Eb              Bb/D                  Cm
Uno mi voz al concierto de voces que cantan
     Bb       Ab
te quiero adorar
Eb              Bb/D                Cm
Canto de tus maravillas, tu misericordia
   Bb      Ab
y tu gran amor
Fm7      Eb       Bb/D
Quiero con esta canción
Fm7      Eb    Bb/D
Y desde mi corazón
           Eb
Darte el honor.

   Ebadd2    Bb/D        Cm7        Ab
e-|-------3---------------------3---------------
B-|----------3-------3--1----------1------1-----
G-|-----0----------0----------2---------2----2--
D-|---2----------0----------2---------3---------
A-|-3------3---2------2---0------0--------------
E-|----------------------------------1-----1----


   Ebadd2    Bb/D        Cm7         Ab
e-|-------3---------------------3-------
B-|----------3-------3--1----------1----
G-|-----0----------0----------2------2--
D-|---2----------0----------2--------3--
A-|-3------3---2------2---0------0------
E-|----------------------------------1--


ESTROFA II:

   Ebadd2    Bb/D        Cm7        Ab
  Hoy me des...escuchan...voz
e-|-------3---------------------3---------------
B-|----------3-------3--1----------1------1-----
G-|-----0----------0----------2---------2----2--
D-|---2----------0----------2---------3---------
A-|-3------3---2------2---0------0--------------
E-|----------------------------------1-----1----

   Ebadd2    Bb/D        Cm7
Un lengua...sin...anunciando a Dios
e-|-------3---------------------3----------3-----
B-|----------3-------3--1----------1----------1--
G-|-----0----------0----------2----------2-------
D-|---2----------0----------2----------2---------
A-|-3------3---2------2---0----------0-----------
E-|----------------------------------------------

   Ab                     Eb
   De un ex...al otro resonó
e-|-----------------------------0---------0---
B-|-------1----------1------------1---------1-
G-|-----2---2------2---2------0---------0-----
D-|---3----------3----------2---------2-------
A-|-----------------------3---------3---------
E-|-1----------1------------------------------

    F7+9/A                   Bb6
Era la Creación, Toda la Creación
   e-|-------0----------0----------0-----
   B-|---------1----------1-----------1--
   G-|-----2----------2----------0-----2-
   D-|---0----------0----------0---------
   A-|-----------------------------------
   E-|-2----------2----------3-----------


C O R O:

Eb              Bb/D                  Cm
Uno mi voz al concierto de voces que cantan
     Bb       Ab
te quiero adorar
Eb              Bb/D                Cm
Canto de tus maravillas, tus misericordias
   Bb      Ab
y tu gran amor
Fm7      Eb       Bb/D
Quiero con esta canción
Fm7      Eb    Bb/D
Y desde mi corazón

Eb              Bb/D                  Cm
Uno mi voz al concierto de voces que cantan
     Bb       Ab
te quiero adorar
Eb              Bb/D                Cm
Canto de tus maravillas, tus misericordias
   Bb      Ab
y tu gran amor
Fm7      Eb       Bb/D
Quiero con esta canción
Fm7      Eb    Bb/D
Y desde mi corazón
           Eb
Darte el honor.



ACORDES MAS DIFICILES

              F7+9/A
      1    2    3    4    5    6
e-| |----|----|-||-|----|----|----|
B-| |----|----|-||-|-◙--|----|----|
G-| |----|----|-||-|----|-◙--|----|
D-| |----|----|-||-|----|----|----|
A-|X|----|----|-||-|----|----|----|
E-| |----|----|-||-|----|-◙--|----|

                  Bb6
      1    2    3    4    5    6
e-| |----|----|-||-|----|----|----|
B-| |----|----|-||-|----|----|----|
G-| |----|----|-||-|----|----|----|
D-| |----|----|-||-|----|-◙--|----|
A-| |----|----|-||-|----|-◙--|----|
E-| |----|----|-||-|----|----|-◙--|

                Cm7
      1    2    3    4    5    6
e-| |----|----|-||-|----|----|-◙--|
B-| |----|----|-||-|-◙--|----|----|
G-| |----|----|-||-|----|-◙--|----|
D-| |----|----|-||-|----|-◙--|----|
A-|0|----|----|-||-|----|----|----|
E-| |----|----|-||-|----|----|----|

                  Bb/D
      1    2    3    4    5    6
e-| |----|----|-||-|----|----|-◙--|
B-| |----|----|-||-|----|----|-◙--|
G-| |----|----|-||-|----|----|----|
D-| |----|----|-||-|----|----|----|
A-| |----|----|-||-|----|-◙--|----|
E-|X|----|----|-||-|----|----|----|

                Ebadd2
      1    2    3    4    5    6
e-| |----|----|-||-|----|----|-◙--|
B-| |----|----|-||-|----|----|-◙--|
G-| |----|----|-||-|----|----|----|
D-| |----|----|-||-|----|-◙--|----|
A-| |----|----|-||-|----|----|-◙--|
E-| |----|----|-||-|----|----|----|

Bueno las lineas en el 3er. traste son para simular el capo.

Ahhh...y en el arpegio de las estrofas la letra esta cortada
porque el arpegio es muy rapido mientras que la letra va mas
lento.

Ok...Ojala les sirva de algo...
Cualquier duda: marvillagran@hotmail.es


BENDICIONES DESDE GUATEMALA!!!





Calificar esta versión:
Aviso: Este fichero es trabajo propio de su transcriptor y representa su interpretación personal de la canción. El material contenido en esta página es para exclusivo uso privado, por lo que se prohibe su reproducción o retransmisión, así como su uso para fines comerciales.
Más versiones de Pensaba En Tí, Marcela Gandara
Pensaba En Tí
acordes
Pensaba En Tí (ver 2)
acordes
Pensaba En Tí
tablatura
Descubre más canciones de Marcela Gandara