Un Rey Y Un Diez, Manuel García (tablatura)

Autor: Anónimo | 44322 visualizaciones

Versión arpegiada de Un rey y un diez.
alexis_lko

Consejo: para que los cambios suenen bien deben escuchar mucho el tema,
cuesta un poco tomarle la mano de un principio y mas cuando es con arpegio,
pongan de su parte y practiquenla harto :)

Intro:
e|----------------------------------------2-------0--------0---------|
B|----0--3---1------------0--------------------------0--------0------|
G|---------------------------2---0------------------0-0------0-0-----|
D|--------------------1---------------1-------1----2---2-2--2---2-2--|
A|-2----------------------------------------------2-----2--2-----2---|
E|----------------0--------------------------------------------------|

Verso:
Temprano…
       Em       C           D         D            Bm
e|----------------0--------------2-----------2-----------2----------|
B|----0---------------1--------------3-----------3-----------3------|
G|---0---------------0--------------2-2---------2-2---------4-4-----|
D|--2---------------2--------------0---0-0-----0---0-0-----4---4-4--|
A|-2--------------3--------------0------0----0------0----2------2---|
E|------------------------------------------------------------------|

Y al escucharla...
      Em          C              D      D         Bm
e|----------------0--------------2-----------2-----------2----------|
B|-0---0---------------1--------------3-----------3-----------3------|
G|---0---------------0--------------2-2---------2-2---------4-4-----|
D|--2---------------2--------------0---0-0-----0---0-0-----4---4-4--|
A|-2--------------3--------------0------0----0------0----2------2---|
E|------------------------------------------------------------------|

Coro 1:
Y cuando los vi…
             Em                 C        D/F#        Bm
e|------------------------------------------------------------------|
B|-0------0------0-----0------1------1------3------3------3----3----|
G|----0------0-----0------0------0------0------2------2-----4----4--|
D|---2-2----2-2---2-2----2-2----2-2----2-2----0-0----0-0---4-4--4-4-|
A|-2------2------2-----2------3------3--------------------2----2----|
E|------------------------------------------2------2----------------|

Y cuando los vi…
              Em              C         D/F#          Bm
e|-------------------------------------------------------------------|
B|-0------0------0-----0------1------1------3------3------3-------3--|
G|----0------0-----0------0------0------0------2------2-----4----4---|
D|---2-2----2-2---2-2----2-2----2-2----2-2----0-0----0-0---4-4--4----|
A|-2------2------2-----2------3------3--------------------2----2-----|
E|------------------------------------------2------2-----------------|

Puente:
     Em
e|-------|
B|--0----|
G|----0--|X4
D|---2-2-|
A|--2----|
E|-------|


Verso2:

De noche el viento...
   Em      C        D       D          Bm
e|---------0--------2-----------2-----------2----------|
B|-0----------1---------3-----------3-----------3------|
G|---0-------0---------2-2---------2-2---------4-4-----|X2
D|--2-------2---------0---0-0-----0---0-0-----4---4-4--|
A|-2-------3--------0------0----0------0----2------2---|
E|-----------------------------------------------------|

Aquí los separe para que vieran bien los arpegios porque esta parte del tema
es más rápida y todo junto iba a ser muy complicado entender como iba ;)


Coro 2:
Se repite el coro 2, DOS VECES.

Y cuando los vi
               Em
e|-------------------------------------|
B|-0---0-------------0---0-------------|
G|---0---0---0-0-0-0---0---0---0-0-0-0-|
D|--2-2-2-2-2-2-2-2---2-2-2-2-2-2-0-0--|
A|-2-------2---------2-------2---------|
E|-------------------------------------|

 y un diez…
           C
e|----------------------|
B|-1---1--------1-------|
G|---0---0---0----0-----|
D|--2-2-2-2-2-2--2-2----|
A|-3-------3----3-------|
E|----------------------|

Y me acordé…
e|-----------------|
B|3---3---3---3----|
G|--2---2---2---2--|
D|-0-0-0-0 0-0-0-0-|
A|-----------------|
E|2----------------|

…ria de amor

            Bm
e|--------------------|
B|--3----3-------3----|
G|-----4---4---4---4--|
D|----4-4-4-4-4-4-4-4-|
A|--2--------2--------|
E|--------------------|
Calificar esta versión:
Aviso: Este fichero es trabajo propio de su transcriptor y representa su interpretación personal de la canción. El material contenido en esta página es para exclusivo uso privado, por lo que se prohibe su reproducción o retransmisión, así como su uso para fines comerciales.
Más versiones de Un Rey Y Un Diez, Manuel García
Un Rey Y Un Diez
acordes
Un Rey Y Un Diez
tablatura
Descubre más canciones de Manuel García