El Viejo Comunista, Manuel Garcia (tablatura)

Autor: benjamin2 | 42612 visualizaciones

E|--0-------------------------------------------------------|
B|----3-2-0-3--2-0-2-0--------------------------------------|
G|---------------------2------1-2-7-------------------------|
D|------------------------4-4---------4-4-4-4-2-------------|
A|----------------------------------------------------------|
e|----------------------------------------------------------|


E|--0-------------------------------------------------------|
B|----3-2-0-3--2-0-2-0--------------------------------------|
G|---------------------2------1-2-7-6-4-1-2-1---------------|
D|------------------------4-4------------------4---2--------|
A|-----------------------------------------------4----------|
e|----------------------------------------------------------|


E|----------------------------------------------------------|
B|--------1-6-4-2-1-2-1-------------------------------------|
G|--2-2-4--------------4---2--------------------------------|
D|-----------------------4----------------------------------|
A|----------------------------------------------------------|
e|----------------------------------------------------------|


E|----------------------------------------------------------|
B|--0-0-0-0-0------------0-0-0-0-0--------------------------|
G|-------------2-1-2-1-2------------2-1-2-2-----------------|
D|----------------------------------------------------------|
A|----------------------------------------------------------|
e|----------------------------------------------------------|

Comentarios del colaborador: no me salio tan parecida pero es lo mejor q pude acer

Calificar esta versión:
Aviso: Este fichero es trabajo propio de su transcriptor y representa su interpretación personal de la canción. El material contenido en esta página es para exclusivo uso privado, por lo que se prohibe su reproducción o retransmisión, así como su uso para fines comerciales.
Más versiones de El Viejo Comunista, Manuel Garcia
El Viejo Comunista
acordes
El Viejo Comunista
tablatura
Descubre más canciones de Manuel Garcia