El Reino Del Tiempo, Manuel García (tablatura)

Autor: Anónimo | 20547 visualizaciones

Capodastro 4º espacio
la intro es un arpegio con los siguientes acordes
   REm         LA#           DO
e--------1h0-----------------3-1-0------------------|
B------3-----3-------3h1-----------3-1--------------|
G----2-------------3-----3-------------0-------0----|
D--0-------------3-----------------------3-2h3------|
A--------------1-----------3---------------------3--|
E---------------------------------------------------|
                                                ---> se repite
e--------1h0---------------------------0-------------|
B------3-----3---3-------3-------1-------1-------1---|
G----2-------------3---3-------0---0-------0---0-----|
D--0-----------------2-------2-------2-------2-----0-|
A--------------1-----------0-------------------------|
E----------------------------------------------------|

REm              LA#                   DO
A veces abres la puerta y entra con el sábado
REm               LA#                   DO
un vientecillo de abril que remueve los años
FA                                       MIm
a mí me encuentra de espalda mirando mis manos
 REm               LA#                     DO
y roza la flor del mantel con sus labios helados

Parece que todo está igual pero algo ha cambiado
algo se queda en el aire y nos ha interpretado
tal vez las pequeñas palabras de un libro cerrado
o es sólo el aliento del mar como un pétalo blanco

Intro

las viejas de donde nací cuando entraba este viento
decían que estaban pensando en nosotros los muertos
hacían tres cruces al aire y guardaban silencio
ahora podemos pensar que tal vez sea cierto

Pero recuerda que el viento es del reino del tiempo
una de las siete llaves de todo lo eterno
él sabe cuando te quiero y nos deja en secreto
un ángel despierto en tus ojos arregla el florero.

Coda
Calificar esta versión:
Aviso: Este fichero es trabajo propio de su transcriptor y representa su interpretación personal de la canción. El material contenido en esta página es para exclusivo uso privado, por lo que se prohibe su reproducción o retransmisión, así como su uso para fines comerciales.
Más versiones de El Reino Del Tiempo, Manuel García
El Reino Del Tiempo
acordes
El Reino Del Tiempo
tablatura
Descubre más canciones de Manuel García