Catalejo, Manuel García (tablatura)

Autor: Anónimo | 34149 visualizaciones

Catalejo

Esta cancion la saque hace mucho tiempo y ahora que salio en el disco
quise ponerla aqui, y es por esto que talves tenga algunas
diferencias con la nueva version.



I)

e:---------------------------------2---------------------------------2
B:-------0-------0-------0-------0---------0-------0-------0-------0--
G:-----0-------0-------0-------0---------0-------0-------0-------0----
D:--2--------2-------2-------2---------1-------1-------1-------1-------
A:--------------------------------------------------------------------
E:--------------------------------------------------------------------

e:---------------------------------0---------------------------
B:------1------1------1---------3-----------1----------1-------
G:----0------0------0--------0----------2---------2------------
D:-------------------------------------------------------------
A:--3------3------3-------2---------0--------------------------
E:--------------------------------------------3----------------

e:------------------------------2----------------------------0-
B:-------3-----3------3--------3-------0------0------0-----0---
G:-----2-----2------2--------2-------0------0------0-----0-----
D:-------------------------------------------------------------
A:---------------------------------2------2------2-----2-------
E:---2------2------2------2------------------------------------

e:-----------------------------0----------------------2--
B:------1------1------1------1--------3------3------3----
G:----0------0------0------0--------4------4------4------
D:-------------------------------------------------------
A:--3------3------3------3--------2------2------2--------
E:-------------------------------------------------------


II)

e:-------------------------------------------------------------------
B:------0-------0-------0--------0---------0--------3---------2-----2
G:----1-------1-------1--------1---------2--------2---------2------2-
D:--2-------2-------2--------2---------2--------2---------2-------2--
A:2-------2-------2--------2---------0--------0---------0-------0----
E:-------------------------------------------------------------------

e:--------4-------4-------4-------4--------2-------2-------2-------2-
B:------5-------5-------5-------5--------2-------2-------2-------2---
G:----6-------6-------6------6---------2-------2-------2-------2-----
D:-------------------------------------------------------------------
A:4-------4-------4--------4-----------------------------------------
E:-----------------------------------2-------2-------2-------2-------

e:------0------0-------2-----2-------3-------3--------0-------0--
B:----0------0-------0-----0-------0-------0--------0-------0----
G:--0------0-------0-----0-------0-------0--------0-------0------
D:---------------------------------------------------------------
A:---------------------------------------------------------------
E:3-------3------3-------3-----3-------3--------3-------3--------

e:------2-------2-------2--------2-----
B:----3-------3-------3--------3------
G:--4-------4-------4--------4-------
D:-----------------------------------
A:2-------2-------2--------2----------
E:------------------------------------

e:------0------0-------2-----2-------3-------3--------0-------0--
B:----0------0-------0-----0-------0-------0--------0-------0----
G:--0------0-------0-----0-------0-------0--------0-------0------
D:---------------------------------------------------------------
A:---------------------------------------------------------------
E:3-------3------3-------3-----3-------3--------3-------3--------

e:------2-------2-------2--------2-----
B:----3-------3-------3--------3------
G:--4-------4-------4--------4-------
D:-----------------------------------
A:2-------2-------2--------2----------
E:------------------------------------

e:------0------0-------2-----2-------3-------3--------0-------0--
B:----0------0-------0-----0-------0-------0--------0-------0----
G:--0------0-------0-----0-------0-------0--------0-------0------
D:---------------------------------------------------------------
A:---------------------------------------------------------------
E:3-------3------3-------3-----3-------3--------3-------3--------

e:------2-------2-------2--------2-----
B:----3-------3-------3--------3------
G:--4-------4-------4--------4-------
D:-----------------------------------
A:2-------2-------2--------2----------
E:------------------------------------

I)
Voy en la penumbra hasta el lugar
Donde la luz me hizo estallar
Flores, besos, para ti
I)
Tu respiración es como un mar
Invisible, violento
Y en su ritmo va rompiendo
Flores, besos, que te di

II)
No puedo dormir
Y tú duermes mal
Se te ve morir en el latir
Tardes, lluvias, viajes
Que alumbre con cantos
Tardes, flores, barcos

I)
Llego hasta el lugar y vuelvo atrás
Tu pie en la sal se extinguirá
Y ojos, bocas, se apagarán
I)
Veo aquel lugar con el cristal
De un catalejo que encontré
Y ojos, bocas, se ven volver

II)
No puedo dormir
Y tú duermes mal
Se te ve morir en el latir
Tardes, lluvias, viajes
Que alumbre con cantos
Tardes, flores, barcos
Calificar esta versión:
Aviso: Este fichero es trabajo propio de su transcriptor y representa su interpretación personal de la canción. El material contenido en esta página es para exclusivo uso privado, por lo que se prohibe su reproducción o retransmisión, así como su uso para fines comerciales.
Más versiones de Catalejo, Manuel García
Catalejo
acordes
Catalejo
tablatura
Descubre más canciones de Manuel García