Pas Assez De Toi, Mano Negra (bajo)

Autor: Anónimo | 25743 visualizaciones

PAS ASSEZ DE TOI (BASS)

G|--------------------|--------------------|--------------------|--------------------|--------------------|
D|--2--2--0--0--------|--2--2--0--0--------|--2--2--0--0--------|--2--2--0--0--------|--2--2--0--0--------|
A|--------------3--2--|--------------3--2--|--------------3--2--|--------------3--2--|--------------3--2--|
E|--------------------|--------------------|--------------------|--------------------|--------------------|

G|-----0--5--5--4--5--|--------------------|--------------------|--------------------|--------------------|
D|--2-----------------|--2--2--0--0--------|--2--2--0--0--------|--2--2--0--0--------|--2--2--0--0--------|
A|--------------------|--------------3--2--|--------------3--2--|--------------3--2--|--------------3--2--|
E|--------------------|--------------------|--------------------|--------------------|--------------------|


G|-----0--5--5--4--5--|               G|------------------------|
D|--2-----------------|               D|----2--2--0--0----------|x8
A|--------------------|               A|-----------------3--2---|
E|--------------------|               E|------------------------|


G|-----0--5--5--4--5--|--------------------|--------------------|--------------------|--------------------|
D|--2-----------------|--2--2--0--0--------|--2--2--0--0--------|--2--2--0--0--------|--2--2--0--0--------|
A|--------------------|--------------3--2--|--------------3--2--|--------------3--2--|--------------3--2--|
E|--------------------|--------------------|--------------------|--------------------|--------------------|


G|-------0--5--5--4--5----|--------------------------|--------------------------|--------------------------|
D|----2-------------------|--2--0-----------------0--|--2--0-----------------0--|--2--0-----------------0--|
A|------------------------|---------3--2--3--2--3----|---------3--2--3--2--3----|---------3--2--3--2--3----|
E|------------------------|--------------------------|--------------------------|--------------------------|


G|--------------------|--------------------|--------------------|--------------------|--------------------|
D|--2--0--------------|--2--2--0--0--------|--2--2--0--0--------|--2--2--0--0--------|--2--2--0--0--------|
A|--------3--2--3--2--|--------------3--2--|--------------3--2--|--------------3--2--|--------------3--2--|
E|--------------------|--------------------|--------------------|--------------------|--------------------|

G|-----0--5--5--4--5--|--------------------|--------------------|--------------------|--------------------|
D|--2-----------------|--2--2--0--0--------|--2--2--0--0--------|--2--2--0--0--------|--2--2--0--0--------|
A|--------------------|--------------3--2--|--------------3--2--|--------------3--2--|--------------3--2--|
E|--------------------|--------------------|--------------------|--------------------|--------------------|

G|-----0--5--5--4--5--|--------------------|--------------------|--------------------|--------------------|
D|--2-----------------|--2--2--0--0--------|--2--2--0--0--------|--2--2--0--0--------|--2--2--0--0--------|
A|--------------------|--------------3--2--|--------------3--2--|--------------3--2--|--------------3--2--|
E|--------------------|--------------------|--------------------|--------------------|--------------------|

G|-----0--5--5--4--5--|-----0--5--5--4--5--|-----0--5--5--4--5--|-----0--5--5--4--5--|
D|--2-----------------|--2-----------------|--2-----------------|--2-----------------|x2
A|--------------------|--------------------|--------------------|--------------------|
E|--------------------|--------------------|--------------------|--------------------|

G|---------|---------|---------|
D|----2----|----2----|----2----|
A|---------|---------|---------|
E|---------|---------|---------|

Fuente original: LaCuerda
Colaborador original: Marianito [maro_rnr@hotmail.com]
Calificar esta versión:
Aviso: Este fichero es trabajo propio de su transcriptor y representa su interpretación personal de la canción. El material contenido en esta página es para exclusivo uso privado, por lo que se prohibe su reproducción o retransmisión, así como su uso para fines comerciales.
Más versiones de Pas Assez De Toi, Mano Negra
Pas Assez De Toi
acordes
Pas Assez De Toi
bajo
Descubre más canciones de Mano Negra