Out Of Time Man, Mano Negra (bajo)

Autor: Anónimo | 45044 visualizaciones

riff principal
G|----------------------|----------------------|----------------------|----------------------|
D|---------------3------|---------------3------|---------------3------|---------------3------| repetir
A|--5---5h3---3----3----|--5---5h3---3----3----|--5---5h3---3----3----|--5---5h3---3----3----|
E|----5-----3-----------|----5-----3-----------|----5-----3-----------|----5-----3-----------|


puente de union
G|---------------|---------------|---------------|
D|---------------|---------------|---------------|
A|---------------|---------------|---------------|
E|-5--5--5--5--5-|-5--5--5--5--5-|-5--5--5--5--5-|

G|---------------|------------------|
D|---------------|------------------|
A|---------------|------------------|
E|-5--5--5--5--5-|-333--111--000----|


solo de guitarra
G|-------------------------|-------------|
D|-------------------------|-------------|x6
A|-------------------------|-------------|
E|-55555-55555-55555-55555-|-333-111-000-|

Fuente original: LaCuerda
Colaborador original: Marianito [maro_rnr@hotmail.com]
Calificar esta versión:
Aviso: Este fichero es trabajo propio de su transcriptor y representa su interpretación personal de la canción. El material contenido en esta página es para exclusivo uso privado, por lo que se prohibe su reproducción o retransmisión, así como su uso para fines comerciales.
Más versiones de Out Of Time Man, Mano Negra
Out Of Time Man
acordes
Out Of Time Man
bajo
Descubre más canciones de Mano Negra