Si No Te Hubieras Ido, Mana (tablatura) (ver 3)

Autor: Anónimo | 23646 visualizaciones

Intro 

  e.-----2--3---3-2--2-0-------
  B.-2/3--3---3-----3---3------
  G.--------------------------- 
  D.---------------------------
  A.---------------------------
  E.---------------------------
  
  e.-----2--3---3-2--2-0-------
  B.-2/3--3---3-----3----------
  G.--------------------------- 
  D.---------------------------
  A.---------------------------
  E.---------------------------
  
  e.-----2--3---3-2--2-0-5-----
  B.-2/3--3---3-----3----------
  G.--------------------------- 
  D.---------------------------
  A.---------------------------
  E.---------------------------
  
  e.-----2--3---3-2--2-0-------
  B.-2/3--3---3-----3----------
  G.--------------------------- 
  D.---------------------------
  A.---------------------------
  E.---------------------------

  Bm                 G                 D                             
Te extraño mas que nunca y no se que hacer
  e.-----0----2-0--------------
  B.----3-3--3---2-0-----------
  G.---2---2------3------------ 
  D.--0------------------------
  A.---------------------------
  E.---------------------------

Bm                 G               D
Despierto y te recuerdo al amanecer 
  e.-----0---2---3-2-0---------
  B.----3-3---3----------------
  G.---2---2---2--------------- 
  D.--0------------------------
  A.---------------------------
  E.---------------------------

A                              D        
Espera otro día por vivir sin ti
  e.-----------------------
  B.---3----2--------------
  G.----2----3-4-----------
  D.--0---4----------------
  A.-----------------------
  E.-----------------------
 
                  Bm                     G      
El espejo no miente,  te veo tan diferente 
  e.-----3-2-0---------------
  B.----3------3-2-3---------
  G.---0--------------------- 
  D.-------------------------
  A.-------------------------
  E.--3----------------------

A              D
Me haces falta tu     
  e.----2-0---------------
  B.---3---2--------------
  G.--2-----3-4----------- 
  D.----------------------
  A.----------------------
  E.----------------------

Bm              G                     D
La gente pasa y pasa siempre tan igual
  e.--------------------------------
  B.--3-3-3-2-2-2-2-2-3-3-3----2----
  G.--2-2-2-2-2-2-2-2-2-2-2-2/3-3-4- 
  D.--------------------------------
  A.--------------------------------
  E.--------------------------------

Bm             G               D
El ritmo de la vida me parece mal
  e.------------------------3-3-2-2-0-0--
  B.--3-3-3-2-2-2-2-2-3-3-3-3-3-3-3-2-2--
  G.--2-2-2-2-2-2-2-2-2-2-2-------------- 
  D.-------------------------------------
  A.-------------------------------------
  E.-------------------------------------
A                                D              Bm
Era tan diferente cuando estabas tu
  e.--------0---------2---0---3---5-
  B.---3-----2-----2/3?3/2-2/3-2/3--
  G.----2-----3-4-------------------
  D.--0--0-4------------------------
  A.--------------------------------
  E.--------------------------------

G                  A                D
Si que era diferente cuando estabas tu  
  e.--2-2-3-3-2-2---2-2-3-3-2-2-0-0--
  B.--3-3-3-3-3-3---3-3-3-3-3-3-2-2--
  G.--2-2-2-2-2-2---2-2-2-2-2-2-2-2--
  D.---------------------------------
  A.---------------------------------
  E.---------------------------------

[CORO]

A                                     D
No hay nada mas difícil que vivir sin ti
  e.-----0---2---3-2-0---------
  B.----3-3---3----------------
  G.---2---2---2--------------- 
  D.--0------------------------
  A.---------------------------
  E.---------------------------

A                                      D
Sufriendo en  l a espera de verte llegar
  e.-----3---2---3-3-2-2-0-0---
  B.----3-3---3--3-3-3-3-2-2---
  G.---2---2---2--------------- 
  D.--0------------------------
  A.---------------------------
  E.---------------------------

A                                  D
El frio de mi cuerpo pregunta por ti
                Bm
Y no se donde estas
  e.--------0---------2---0---3---5-
  B.---3-----2-----2/3?3/2-2/3-2/3--
  G.----2-----3-4-------------------
  D.--0--0-4------------------------
  A.--------------------------------
  E.--------------------------------

G                 A               D      
Si no te hubieras ido seria tan feliz      
 
  e.-----2--3---3-2--2--------
  B.-2/3--3---3-----3---------
  G.--------------------------
  D.--------------------------
  A.--------------------------
  E.--------------------------
 
  e.-----2--3---3-2--2-0-------
  B.-2/3--3---3-----3---3------
  G.--------------------------- 
  D.---------------------------
  A.---------------------------
  E.---------------------------


Bm              G                     D
La gente pasa y pasa siempre tan igual
  e.-----0----2-0--------------
  B.----3-3--3---2-0-----------
  G.---2---2------3------------ 
  D.--0------------------------
  A.---------------------------
  E.---------------------------

Bm             G               D
El ritmo de la vida me parece mal
  e.-----0---2---3-2-0---------
  B.----3-3---3----------------
  G.---2---2---2--------------- 
  D.--0------------------------
  A.---------------------------
  E.---------------------------
A                                D              Bm
Era tan diferente cuando estabas tu
  e.--------0---------2---0---3---5-
  B.---3-----2-----2/3?3/2-2/3-2/3--
  G.----2-----3-4-------------------
  D.--0--0-4------------------------
  A.--------------------------------
  E.--------------------------------

G                  A                D
Si que era diferente cuando estabas tu  
  e.--2-2-3-3-2-2---2-2-3-3-2-2-0-0--
  B.--3-3-3-3-3-3---3-3-3-3-3-3-2-2--
  G.--2-2-2-2-2-2---2-2-2-2-2-2-2-2--
  D.---------------------------------
  A.---------------------------------
  E.---------------------------------

A                                     D
No hay nada mas difícil que vivir sin ti
  e.-----0---2---3-2-0---------
  B.----3-3---3---------------
  G.---2---2---2--------------- 
  D.--0------------------------
  A.---------------------------
  E.---------------------------

A                                      D
Sufriendo en  l a espera de verte llegar
                Bm
Y no se donde estas
  e.--------0-----------3---5-------
  B.---3-----2----3-2?0---2---------
  G.----2-----3-4-4-2-0---2---------
  D.--0--0-4------------------------
  A.--------------------------------
  E.--------------------------------

G                 A               D      
Si no te hubieras ido seria tan feliz
e.------------------------------------------
B.------------------------------------------     
G.----0----0----0--2-0-0-------------------- 
D.---4-4--4-4--4-4------4-0-0-0-0-0-0-0-0-2-
A.--2----2----2-----------------------------
E.------------------------------------------

  e.-----2--3---3-2--2---------
  B.-2/3--3---3-----3----------
  G.--------------------------- 
  D.---------------------------
  A.---------------------------
  E.---------------------------

  e.-----2--3---3-2--2--2------
  B.-2/3--3---3-----3---3------
  G.--------------------2------
  D.---------------------------
  A.---------------------------
  E.---------------------------

Comentarios del colaborador: by gelox angelox_97@hotmail.com

Aviso: Este fichero es trabajo propio de su transcriptor y representa su interpretación personal de la canción. El material contenido en esta página es para exclusivo uso privado, por lo que se prohibe su reproducción o retransmisión, así como su uso para fines comerciales.

Comentarios en Facebook: