Oye Mi Amor, Mana (tablatura) (ver 3)

Autor: Anonimo | 31906 visualizaciones

Bm    A    G 
 -7-  -5-  -3-
 -7-  -5-  -3-
 -7-  -6-  -4-
 -9-  -7-  -5-
 -9-  -7-  -5-
 -7-  -5-  -3-




Punteo 1(*)
e|----------7----------------------------------------------
B|------------7-8-----------7-8----------------------------
G|-----7----------------7----------------------------------
D|---9---9------------9---9------9-------------------------
A|---------------------------------------------------------
E|---------------------------------------------------------

Punteo 2(**) 

B|---7-7-7-7-10-10-8--7-7-7-8--7 
(Tiene algunas variaciones que son faciles de sacar a oido)

Riff (Quena) 

e|--------------14-12----14-12------------14-12----
B|---12--12--12-------12-------12--12--12-------12-

e|-------------14-12----14-12-14-14-14-12-14-|
B|--12--12--12-------12----------------------|

Intro:  Bm-Bm-Bm-A   |Riff
        (ocho veces) |
                    

Estrofas:
  
 No sabes como te deseo * 
 No sabes como te soñado *
 Si tu supieras que me muero *
 Por tu amor y por tus labios *

 Si tu supieras que soy sincero *
 Que yo soy derecho y no te fallo *
 Si tu supieras lo que te quiero *
 Podria darte todo hasta mi ojos *

Pre-Coro:

     A                Bm  
     Pero tu ya tienes otro
     A                Bm
     Un tipo frio y aburrido
     A                G
     Un tonto que es un reprimido 
                      A  
     Eso no te pega a ti
     
     No te va 

Coro:

     **        
     Oye mi amor
     **             
     No me digas que no
     **                  
     Y vamos juntando las almas
     **
     Oye mi amor
     **   
     No me digas que no
     **  
     Y vamos juntando los cuerpos
     
Riff

     Conmigo tu alucinarias * Como no!
     Conmigo tu hasta el fin del mundo *
     Contigo yo me perdería *
     Contigo yo quiero todo y nada a medias * 

Pre-Coro:

     A                Bm  
     Pero tu ya tienes otro
     A                Bm
     Un tipo frio y aburrido
     A                G
     Un tonto que es un reprimido 
                      A  
     Eso no te pega a ti
     
     No te va     No no no no!

Coro:

     **        
     Oye mi amor
     **    
     No me digas que no
     **               
     Y vamos juntando las almas
     **
     Oye mi amor
     **
     No me digas que no
     **
     Y vamos juntando los cuerpos

Solo de Bajo:

e:----------------------------
B:---------7---------10--8----
G:------7---------------------
D:---9----------------------9-
A:----------------------------
E:----------------------------

Coro:

     **
     Oye mi amor
     **
     No me digas que no
     **               
     Y vamos juntando las almas
     **
     Oye mi amor
     **
     No me digas que no
     **
     Y vamos juntando los cuerpos

** X4
______________________________________________________________________
----------------------------------------------------------------------
Si tenés dudas o comentarios, simplemente escribeme a mi e-mail que esta más abajo...

Fuente original: LaCuerda
Colaborador original: Diego de la Fuente [diego117@hotmail.com]
Aviso: Este fichero es trabajo propio de su transcriptor y representa su interpretación personal de la canción. El material contenido en esta página es para exclusivo uso privado, por lo que se prohibe su reproducción o retransmisión, así como su uso para fines comerciales.

Comentarios en Facebook: