Manda Una Señal, Mana (bajo)

Autor: master_of_masters | 21990 visualizaciones

Intro
E|--------------------55555555--------3~--|
A|--33333330-22222222----------2222222----|
D|----------------------------------------|
G|----------------------------------------|

Te quiero
E|--------------------55555555-------------|
A|--33333330-22222222----------22222222----| x2
D|-----------------------------------------|
G|-----------------------------------------|

Los dias...
E|--3-5555-3333-------|
A|--------------3(8)--|
D|--------------------|
G|--------------------|

Las noches...
E|-3-5(4)-7(4)-8(4)-10(4)-7(6)--3-3-3---------|
A|-----------------------------------3-5------|
D|--------------------------------------3-5---|
G|--------------------------------------------|

Ay si tuvieras libertad
E|-8(8)-5(8)-----8(8)-------|
A|-----------7(8)-----------|
D|--------------------5/7-5-|
G|--------------------------|

Hey dame dame una señal
E|-8(8)-5(8)-----8(8)-----------|
A|-----------7(8)----------7-5--|
D|--------------------5/7-5-----|
G|------------------------------|

Hay no lo puedo...
E|---------8(7)10--3(8)-5(8)---------|
A|--8(7)10---------------------------|
D|----------------------------5/7-7--|
G|-----------------------------------|

Mandame un mensaje...
E|-----------8(7)10--3(6)----5(8)-0(8)-|------5-|
A|--8(6)----------------3/55-----------|-----5--|
D|-----8/1010--------------------------|5h7-7---|
G|-------------------------------------|--------|

1mer solo
E|--------------------55555555-------------|
A|--33333333-22222222----------22222222----|
D|-----------------------------------------|
G|-----------------------------------------|

Te veo Acorralada
E|--------------------55555555-------------|
A|--33333330-22222222----------22222222----| x2
D|-----------------------------------------|
G|-----------------------------------------|

Y no vivire sin...

E|-3-5(4)-7(4)-8(8)-|
A|------------------|
D|------------------|
G|------------------|

Y no parare
E|-3-5(4)-7(4)-8(4)-10(4)-7(6)--3-3-3---------|
A|-----------------------------------3-5------|
D|--------------------------------------3-5---|
G|--------------------------------------------|

Hey estoy viviendo...

E|-8(8)-5(8)-----8(8)----------|
A|-----------7(8)----------7-5-|
D|--------------------5/7-5----|
G|-----------------------------|
Hey dime...
E|-8(8)-5(8)-----8(8)----------|
A|-----------7(8)--------------|
D|--------------------5/7--7-5-|
G|-----------------------5-----|

Hay no lo puedo...
E|---------8(7)10--3(8)-5(8)-5-75---------|
A|--8(7)10------------------------5/7-----|
D|------------------------------------5-7-|
G|----------------------------------------|

Mandame
E|-----------8(7)10--3(6)----5(8)-0(8)-|
A|--8(6)----------------3/55-----------|
D|-----8/1010--------------------------|
G|-------------------------------------|


el bajo y la guitarra asen esto
E|--5-5--|
A|--7-7--|
D|-------|
G|-------|


E|--------------|--------------|----------------|
A|--------------|--------------|----------12----|
D|---------|----|--------12-10-|-10/12-10----9--|  |
G|--7/9-12-|-10-|-9/10-9-------|----------------|  |
           |                                       |
           |_ _ solo se toka desde aki_ _ _ _ _ _ _|

pero suena bien si lo ases todo

intro para solo de guitarra con distorsion
E|---------------|
A|-------5555----|
D|--5(5)---------|
G|---------------|

solo Guitarra
E|-5(8)-1(8)-1/88(7)-7(8)-|
A|------------------------|
D|------------------------|x2
G|------------------------|

Vivir sin ti vivir...
E|-5(8)------8(8)-7(8)-|
A|------8(8)-----------|
D|---------------------|
G|---------------------|

Estar sin ti estar...
E|-5(8)------8(8)-7(8)----|
A|------8(8)--------------|
D|--------------------3/5-|
G|------------------------|

Amor donde estaras...
E|-5(8)------8(8)-7(8)-3-3-3-|
A|------8(8)----------------0|
D|---------------------------|
G|---------------------------|

Y no...
E|-5(7)---------8(7)10-7(8)-|
A|------5/88(7)-------------|
D|--------------------------|
G|--------------------------|

2do solo de guitarra con distorsion
E|-5(7)--1(8)-1/88(7)-7(8)-|
A|----7--------------------|
D|-------------------------|
G|-------------------------|

E|--------------------------|
A|--7-810-8-10-----10-8888--|
D|------------7-8-----------|esto es muy rapido
G|--------------------------|

E|-5(7)--1(8)-1/88(7)-7|--3----|----|
A|----7----------------|-2-3-43|-0~-|
D|---------------------|-------|----|
G|---------------------|-------|----|

Comentarios del colaborador: me equiboque en la otra tablatura era para bajo no para gutarra

Calificar esta versión:
Aviso: Este fichero es trabajo propio de su transcriptor y representa su interpretación personal de la canción. El material contenido en esta página es para exclusivo uso privado, por lo que se prohibe su reproducción o retransmisión, así como su uso para fines comerciales.
Más versiones de Manda Una Señal, Mana
Manda Una Señal
acordes
Manda Una Señal (ver 2)
acordes
Manda Una Señal
tablatura
Manda Una Señal (ver 2)
tablatura
Manda Una Señal (ver 3)
tablatura
Manda Una Señal (ver 4)
tablatura
Manda Una SeÑal (ver 5)
tablatura
Manda Una Señal
bajo
Manda Una Señal
bateria
Descubre más canciones de Mana