Hundido En Un Rincon, Mana (tablatura) (ver 3)

Autor: Anonimo | 24278 visualizaciones

Yo se que ya hay dos tabs de esta cancion pero les aseguro que mi version
se escucha mejor que eso, garantizado.



INTRO.
__ 
   
_  1|--------------------------------------------------------------I
_) 2|------10--9--7------------------------------------------------I
   3|-----------------------9--9--11--7----------------------------I
_  4|--11------------11--9---------------11--11p12--9--7--9--9/11--I
_) 5|--------------------------------------------------------------I
   6|--------------------------------------------------------------I
__/



|------------------------------------------------------I
|--10--9--7--------------------------------------------I
|-------------------9--9-------------------------------I
|------------11--9--------7--7--12--11--9--7--9--9/11--I
|------------------------------------------------------I
|------------------------------------------------------I



SOLO DEL FINAL
este es igual que todo lo demas pero al ultimo cambia:



__
   
_  1|--------------------------------------------------------------I
_) 2|------10--9--7------------------------------------------------I
   3|-----------------------9--9--11--7----------------------------I
_  4|--11------------11--9---------------11--11p12--9--7--9--9/11--I
_) 5|--------------------------------------------------------------I
   6|--------------------------------------------------------------I
__/



|-----------------------------------I
|--10--9--7-------------------------I
|-----------------------------------I
|------------11--9---9p11--7p9--11--I
|-----------------------------------I
|-----------------------------------I

Fuente original: LaCuerda
Colaborador original: Daniel Quintana [vdqm@hotmail.com]
Aviso: Este fichero es trabajo propio de su transcriptor y representa su interpretación personal de la canción. El material contenido en esta página es para exclusivo uso privado, por lo que se prohibe su reproducción o retransmisión, así como su uso para fines comerciales.

Comentarios en Facebook: