Corazon Espinado, Mana (tablatura) (ver 4)

Autor: Anónimo | 29495 visualizaciones

[( la 1ra rola que subo )]   NAPM


Introducción

e ----------------------7-6------------------------
b --------------------7-----7--------7-------------
g --------4-7-4---4-7---------9-7-9b---9-6-7-9-----
d ----4-7-------7----------------------------------
a -------------------------------------------------
e -------------------------------------------------


e -------7-10-7----7-------14-18b-18-14----------14---14--14--14--14-----
b --7-10--------10---15-----------------17-15-17b--17b--17b-17b-17b-17b--
g -----------------------------------------------------------------------
d -----------------------------------------------------------------------
a -----------------------------------------------------------------------
e -----------------------------------------------------------------------


e -----------------------------
b --17-14-15-17-15-14-14-------
g -----------------------15b---
d -----------------------------
a -----------------------------
e -----------------------------

Esa mujer me esta matando, me ha espinado el corazón

e -----------------------
b -----------------------
g --9b-9-7-9-7-11p7------
d ------------------9----
a -----------------------
e -----------------------

Por mas que trato de olvidarla, mi alma no da razón

e -----------------------
b -----------------------
g --6-7-9—9-7-----------
d -------------9-7-------
a -----------------------
e -----------------------

Mi corazón aplastado

e -------------------------------
b -------------------------------
g --14-12-11----------11----11---
d -----------14-12-14----14------
a -------------------------------
e -------------------------------

Dolido y abandonado, a ver a ver

e ----------
b ----------
g ----4-6-7-
d --4-------
a ----------
e ----------

Cuanto amor y que dolor nos quedo, aaaaaaaahh… aay corazón espinado
como duele, me duele mamá, aaaaaaahh… aay como me duele el amor

e ------7-7-----7-7-7-------------------
b --10b-----10b-------10b-10-7---7------
g -----------------------------9---9b---
d --------------------------------------
a --------------------------------------
e --------------------------------------

Cómo duele, como duele el corazón, cuando no es bien entregado

e ---------
b ---------
g --6-7-9--
d ---------
a ---------
e ---------

Pero no olvides mujer que algún día dirás ahy ahy ahy

e------------------
b------------------
g--9b-9b-9b-9b-9---
d------------------
a------------------
e------------------

Cómo me duele el amor

e ------------------------
b -----7-7--7-------------
g --9b--------9-7-9-7-----
d --------------------9---
a ------------------------
e ------------------------

Aaaaaaahh… aay corazón espinado cómo duele, me duele mamá
Aaaaaaaahh… aay cómo me duele el amor

e ------------------------------------------------------------------------
b -10b-10-7-10-7-10-7-10-7---10b-10-10-7----------------------------------
g -------------------------9-------------9-7-9-7-11-7---7-6-6-6-6-7-6-----
d ----------------------------------------------------9---------------9-9-
a ------------------------------------------------------------------------
e ------------------------------------------------------------------------

Aaaaaaaahh…aay corazón espinado aaaaaaaahh… aay cómo me duele el amor

e -------------------------14---14----------------------------------------
b -15-17-15-17-15-17-15-17b--17b--17-15-17-15-----15-14-14-14-15-14-------
g -------------------------------------------16-16------------------16-16-
d ------------------------------------------------------------------------
a ------------------------------------------------------------------------
e ------------------------------------------------------------------------

e ------------
b ------------
g ------------
d ------------
a --7//9-7//9-
e ------------

Hechele mi Carlitos
(desliza haciendo un slide down con rasgueo rápido desde
el III Traste las 3 primeras cuerdas)

solo

e --------------------------------------------------------------------
b ---------------------------14b-14-12-----12-12-12-------------------
g --14b-14b-14-11----------------------14b----------14-11-------------
d ----------------14-14b-14b------------------------------14-12-14----
a --------------------------------------------------------------------
e --------------------------------------------------------------------

e ---------------------------------------------------
b --12-15-15-12-15-15-12-15-12-15-15-12-15-15-12-15--
g ---------------------------------------------------
d ---------------------------------------------------
a ---------------------------------------------------
e ---------------------------------------------------

e ---------------------------------------------------
b --14-17-17-14-17-17-14-17-14-17-17-14-17-17-14-17--
g ---------------------------------------------------
d ---------------------------------------------------
a ---------------------------------------------------
e ---------------------------------------------------

(rasga rápido en la primer cuerda)

e --14-14-14-14-14-14-14-14-14-14-14-15-14-15-14-15-14-15-14-15-14-15--
b ---------------------------------------------------------------------
g ---------------------------------------------------------------------
d ---------------------------------------------------------------------
a ---------------------------------------------------------------------
e ---------------------------------------------------------------------

e --15-14-15-15b-15-14-17b-17b-17b-17-14-------------
b ---------------------------------------17-17b-17b--
g ---------------------------------------------------
d ---------------------------------------------------
a ---------------------------------------------------
e ---------------------------------------------------

e --17b-17b-17b-17-14----14-------------------------------
b --------------------17----17-17-15-17-19-15-17-17-15----
g -----------------------------------------------------16--
d --------------------------------------------------------
a --------------------------------------------------------
e --------------------------------------------------------

(Hazle algo así como palm off la altura del tercer traste tapando las
cuerdas con la mano derecha tapa sonidos de las otras cuerdas)

e --10-9-7--10-9-7--10-9-7--10-9-7--10-9-7--10-9-7--10-9-7--
b ----------------------------------------------------------
g ----------------------------------------------------------
d ----------------------------------------------------------
a ----------------------------------------------------------
e ----------------------------------------------------------


e --12-10-9--12-10-9--12-10-9--12-10-9--12-10-9--12-10-9--12-10-9--12--
b ---------------------------------------------------------------------
g ---------------------------------------------------------------------
d ---------------------------------------------------------------------
a ---------------------------------------------------------------------
e ---------------------------------------------------------------------

(desliza haciendo un slide down con rasgueo rápido desde
el IIITraste las 3 primeras cuerdas )

Cómo me duele el olvido ( esta parte va con guitarra acústica )

e --------------------------------
b --------------------------------
g --14-12-11----------11----11----
d -----------14-12-14----14-------
a --------------------------------
e --------------------------------

Cómo duele el corazón ( esto ya va con guitarra eléctrica)

e ----7-9-10-9-7-------------
b --7------------7-----------
g -----------------9-7-------
d ---------------------------
a ---------------------------
e ---------------------------

Cómo me duele estar vivo

e -----------------------------------------
b -----------------------------------------
g -----------------------------------------
d ----11-14-14-12-14-16-17-16-14h16-14-12--
a --12-------------------------------------
e -----------------------------------------

Sin tenerte a un lado amor

e ------------------------------
b ------------------------------
g ------------------------------
d ------------------------------
a –7//9-9-9--7//9-9-9--7//9-9---
e ------------------------------

Corazón espinado, corazón espinado, hay corazón espinado

e ---------------------------------------------------------------------
b ----------7-----------------------------------7---7------------------
g ----7-9-9---9-------7-6-6-6-6-7-6---------7-9---9---9b-9-7-----------
d --9-----------9-7-9---------------7---9-9------------------9-7-9-----
a ------------------------------------9--------------------------------
e ---------------------------------------------------------------------

e -----7-7----7----7-7-7--
b -----7-7----7----7-7-7--
g --9b-----9b---9b--------
d ------------------------
a ------------------------
e ------------------------

e --------------------14-14-14-14-
b --17b-17b-17-15-17b-------------
g --------------------------------
d --------------------------------
a --------------------------------
e --------------------------------

e ---------------------------------------------------------
b --17-15-17-15-12-12-15-12-12-15-12-12-14-15-15-14-15-15--
g ---------------------------------------------------------
d ---------------------------------------------------------
a ---------------------------------------------------------
e ---------------------------------------------------------

e -----14-14-14-14-14-14-14----------14-17-14-17-14-17-14-17-18b-
b --15-15-15-15-15-15-15-15--14-15-17---------------------------
g --------------------------------------------------------------
d --------------------------------------------------------------
a --------------------------------------------------------------
e --------------------------------------------------------------


spero y les guste 
esta rola muy buena de 
mana 
Aviso: Este fichero es trabajo propio de su transcriptor y representa su interpretación personal de la canción. El material contenido en esta página es para exclusivo uso privado, por lo que se prohibe su reproducción o retransmisión, así como su uso para fines comerciales.

Comentarios en Facebook: