Clavado En Un Bar, Mana (tablatura) (ver 2)

Autor: Anonimo | 23147 visualizaciones

CLAVADO EN UN BAR
                                 grabado por Maná
                      (de el 1997 Album SUEÑOS LÍQUIDOS)

musica y letras por Maná
arreglos por Maná
Transcribido por orlando chirinos (para que aprendan a sacar una cancion)

Gtr I (E A D G B E) - Rhy Gtr. I
Gtr II (E A D G B E) - Rhy Gtr. II

   Intro
    Moderately Fas1.Rock Q=148     2.
    B5   E5   B5     E5   C#sus4      E5   C#sus4
   4/4
    Gtr I
    Q  E Q  E Q    E Q  E q  q      E Q  E q     q
||---------------|---------------||-----------------|
||o------5--x----|---5--x-7--7--o||---5--x-7-----7--|
||--4--x-4--x-4--|-x-4--x-6--6---||-x-4--x-6-----6--|
||--4--x-2--x-4--|-x-2--x-4--4---||-x-2--x-4-----4--|
||o-2--x------2--|-x------4--4--o||-x------4-----4--|
||---------------|---------------||-----------------|
|
|   Gtr II
|                                             <
|   W              W                H      E  Q.
||---------------|---------------||-----------------|
||o--------------|--------------o||----------<7>----|
||---------------|---------------||-----------------|
||---------------|---------------||-----------------|
||o--------------|--------------o||-----------------|
||---------------|---------------||-----------------|


  B5   E5   B5     E5   C#sus4  B5   E5   D#sus4
  Q  E Q  E Q    E Q  E q  q    Q  E Q  E Q    +H..       +E
|--------------|--------------|--------------|-----------------||
|------5--x----|---5--x-7--7--|------5--x-9--|-(9)--------(9)-||
|-4--x-4--x-4--|-x-4--x-6--6--|-4--x-4--x-8--|-(8)--------(8)-||
|-4--x-2--x-4--|-x-2--x-4--4--|-4--x-2--x-6--|-(6)--------(6)-||
|-2--x------2--|-x------4--4--|-2--x------6--|-(6)--------(6)-||
|--------------|--------------|--------------|-----------------||
|
| Q  E Q  E Q    E Q  E q  q    Q  E Q  E Q    +H..       +E
|--------------|--------------|--------------|-----------------||
|------5--x----|---5--x-7--7--|------5--x----|-----------------||
|-4--x-4--x-4--|-x-4--x-6--6--|-4--x-4--x-8--|-(8)--------(8)-||
|-4--x-2--x-4--|-x-2--x-4--4--|-4--x-2--x-6--|-(6)--------(6)-||
|-2--x------2--|-x------4--4--|-2--x------6--|-(6)--------(6)-||
|--------------|--------------|--------------|-----------------||


   1st Verse
       B5                              F#
   2/2
    Q  e e Q  e E   Q  e e q  e e   q  e e q  e e   q   e e  q  e E
||----------------|---------------|---------------|-----------------|
||o----7-7----7---|----7-7----7---|---------------|-----------------|
||-----4-4----4---|----4-4----4---|----3-3----3---|-----3-3-----3---|
||----------------|---------------|----4-4----4---|-----4-4-----4---|
||o---------------|---------------|---------------|-----------------|
||----------------|---------------|---------------|-----------------|
|
|   Q  e e Q  e E   Q  e e q  e e   q  e e q  e e   Q.    Q.    Q
||----------------|---------------|---------------|-0-----0---------|
||o---------------|---------------|---------------|-------------4---|
||-----4-4----4---|----4-4----4---|---------------|-----------------|
||-----4-4----4---|----4-4----4---|----4-4----4---|-----------------|
||o---------------|---------------|----4-4----4---|-----------------|
||----------------|---------------|---------------|-----------------|


                                                 1.
     G#5                             E5
  Q  e e q  e e   q  e e q  e e   q  e e q  e e   E E e E E E e E
|---------------|---------------|---------------|------------------||
|----4-4----4---|----4-4----4---|----5-5----5---|-x-x-5-x-x-x-5-x-o||
|----1-1----1---|----1-1----1---|----4-4----4---|-x-x-4-x-x-x-4-x--||
|---------------|---------------|---------------|------------------||
|---------------|---------------|---------------|-----------------o||
|---------------|---------------|---------------|------------------||
|
|                                                             ~
| Q  e e q  e e   q  e e q  e e   q  e e q  e e   E E e E Q   Q
|---------------|---------------|---------------|------------------||
|---------------|---------------|---------------|-----------------o||
|----1-1----1---|----1-1----1---|----4-4----4---|-x-x-4---4---6----||
|----1-1----1---|----1-1----1---|----2-2----2---|-x-x-2-4----------||
|---------------|---------------|---------------|-----------------o||
|---------------|---------------|---------------|------------------||


                   Pre-Chorus
  2.
                 $
     E5    F#5      E5   F#5    G#5       N.C.(G#)  B/D#       E5     F#5
  Gtrs I, II
                                          PM------|
  q  e e e E E E    Q  E Q.   E E   +E  E E E E E E E   +Q   E Q.   E E
|----------------||---------------|-------------------|-----------------|
|----5-5---7-7---||-5--x-7----x-9-|-(9)-9-----------4-|-(4)--x-5----x-7-|
|----4-4---6-6---||-4--x-6----x-8-|-(8)-8-----------4-|-(4)--x-4----x-6-|
|----2-2---4-4---||-2--x-4----x-6-|-(6)-6-----------1-|-(1)--x-2----x-4-|
|----------------||---------------|-------------------|-----------------|
|----------------||---------------|-------4-4-4-4-4---|-----------------|


        N.C.(FF#5 D#m             E5                D#m             E5
        PM--|   PM
  +E  E E E E E E  E   +H..       E   +E  H    +Q    E   +H..       E
|-----------------^2-|-(2)----------|---------------^2-|-(2)----------|
|-(7)-7-----------^4-|-(4)--------5-|-(5)-5----(5)--^4-|-(4)--------5-|
|-(6)-6-----------^3-|-(3)--------4-|-(4)-4----(4)--^3-|-(3)--------4-|
|-(4)-4-------4---^1-|-(1)--------2-|-(2)-2----(2)--^1-|-(1)--------2-|
|-------------4------|--------------|------------------|--------------|
|-------2-2-2-2-2----|--------------|------------------|--------------|


                           Slight accel Q=149
         N.C.(E)           D#m        E5                    F#5
  +E  Q  E  E   E   E  E    H..       E   +E  H.      +E    Q.   Q.   Q
|------------------(0)---|-^2-----------|-----------------|--------------|
|-(5)-5-----0--(0)-----x-|-^4---------5-|-(5)-5-------(5)-|-7----7----7--|
|-(4)-4----(1)--1------x-|-^3---------4-|-(4)-4-------(4)-|-6----6----6--|
|-(2)-2--2----------2--x-|-^1---------2-|-(2)-2-------(2)-|-4----4----4--|
|------------------------|--------------|-----------------|--------------|
|------------------------|--------------|-----------------|--------------|


                    Chorus
                 $$
           E5        B                (B)   (F#)  (B)   D#5
                        PM--------|     PM|   PM|   PM     PM--------|
  +E  E q  Q  Q      Q  E E E E E E   E E E E E E E E   Q  E E E E E E
|----------------||--2--------------|-----------------|----------------|
|-(7)-7-7--5--5--||o-4--------------|-4---------------|----------------|
|-(6)-6-6--4--4--||--4--------------|-4-----3-----4---|-8--------------|
|-(4)-4-4--2--2--||--4--------------|-4-----4-----4---|-8--------------|
|----------------||o-2--2-2-2-2-2-2-|---2-2---2-2---2-|-6--6-6-6-6-6-6-|
|----------------||-----------------|-----------------|----------------|


  (D#)  (E/A#)A#sus4G#suG#m
    PM|   PM|              PM----|   PM----|   PM--|   PM
  E E E E E E S +S  E   Q  E E E E E E   E E E E E E E E
|---------------------|----------------|------------------|
|-7-------------------|----------------|------------------|
|-8-----9-----8-(8)s6-|-4----------4---|-----4-------4----|
|-8-----8-----8-(8)s6-|-6----------6---|-----6-------6----|
|---6-6---6-6---------|-6----------6---|-----6-------6----|
|---------------------|-4--4-4-4-4-4-4-|-4-4-4-4-4-4-4-4--|


                   1.                  2.
         To Coda                         To Dbl. Coda
  E5
      PM----|   PM    PM|   PM|   PM
  E E E E E E E E   E E E E E E E E     E E E E q  q
|-----------------|------------------||---------------||
|-5-5---------5---|-5-----5-----5---o||-5-5-5-5-5--5--||
|-4-4---------4---|-4-----4-----4----||-4-4-4-4-4--4--||
|-2-2-2-2-2-2-2-2-|-2-2-2-2-2-2-2-2--||-2-2-2-2-2--2--||
|-----------------|-----------------o||---------------||
|-----------------|------------------||---------------||


 Guitar Break
  Tempo I Q=148
  B5   E5   B5     E5   C#sus4     B5   E5   B5     E5   C#sus4
  Gtr I
  Q  E Q  E Q    E Q  E q     q    Q  E Q  E Q    E Q  E q  q
|--------------|-----------------|--------------|--------------||
|------5--x----|---5--x-7-----7--|------5--x----|---5--x-7--7--||
|-4--x-4--x-4--|-x-4--x-6-----6--|-4--x-4--x-4--|-x-4--x-6--6--||
|-4--x-2--x-4--|-x-2--x-4-----4--|-4--x-2--x-4--|-x-2--x-4--4--||
|-2--x------2--|-x------4-----4--|-2--x------2--|-x------4--4--||
|--------------|-----------------|--------------|--------------||
|
| Gtr II
|                          <
| W              H      E  Q.      Q  E Q  E Q    E Q  E q  q
|--------------|-----------------|--------------|--------------||
|--------------|----------<7>----|------5--x----|---5--x-7--7--||
|--------------|-----------------|-4--x-4--x-4--|-x-4--x-6--6--||
|--------------|-----------------|-4--x-2--x-4--|-x-2--x-4--4--||
|--------------|-----------------|-2--x------2--|-x------4--4--||
|--------------|-----------------|--------------|--------------||


 2nd Verse
  (B5)                             (F#)
  Gtrs I, II
  PM|    PM|      PM|    PM|       PM|    PM|      PM|    PM|
  E E Q  E E Q    E E Q  E E E E   E E Q  E E Q    E E Q  E E E E
|---------------|----------------|---------------|----------------|
|---------------|----------------|---------------|----------------|
|-----4------4--|-----4------4-3-|-----3------3--|-----3------3-4-|
|-----4------4--|-----4------4-4-|-----4------4--|-----4------4-4-|
|-2-2----2-2----|-2-2----2-2-----|---------------|----------------|
|---------------|----------------|-2-2----2-2----|-2-2----2-2-----|


  (G#5)                            (E5)
  PM|    PM|      PM|    PM|       PM|    PM|          PM|
  E E Q  E E Q    E E Q  E E E E   E E Q  E E Q    E E E E q  q
|---------------|----------------|---------------|---------------|
|---------------|----------------|---------------|---------------|
|---------------|----------------|-----9------9--|---9-----9--9--|
|-----6------6--|-----6------6-9-|-----9------9--|---9-----9--9--|
|-----6------6--|-----6------6-6-|-7-7-7--7-7-7--|-7-7-7-7-7--7--|
|-4-4----4-4----|-4-4----4-4-----|---------------|---------------|


  (B5)                                (F#)
  PM|     PM|       PM|     PM|       PM|     PM|       PM|     PM|
  E E E E E E E E   E E E E E E E E   E E E E E E E E   E E E E E E E E
|-----------------|-----------------|-----------------|-----------------|
|-----------------|-----------------|-----------------|-----------------|
|-----4-4-----4-4-|-----4-4-----4-3-|-----3-3-----3-3-|-----3-3-----3-4-|
|-----4-4-----4-4-|-----4-4-----4-4-|-----4-4-----4-4-|-----4-4-----4-4-|
|-2-2-----2-2-----|-2-2-----2-2-----|-----------------|-----------------|
|-----------------|-----------------|-2-2-----2-2-----|-2-2-----2-2-----|


                                                          D.S. al Coda
  (G#5)                               (E5)                        F#5
  PM|     PM|       PM|     PM|       PM|     PM|       PM|     PM
  E E E E E E E E   E E E E E E E E   E E E E E E E E   E E E E E E E E
|-----------------|-----------------|-----------------|-----------------||
|-----------------|-----------------|-----------------|-----------7-7---||
|-----8-8-----8-8-|-----8-8---------|-----9-9-----9-9-|-----9-9---6-6---||
|-----6-6-----6-6-|-----6-6-----6-9-|-----9-9-----9-9-|-----9-9---4-4---||
|-----------------|-------------6-6-|-7-7-----7-7-----|-7-7-----7-------||
|-4-4-----4-4-----|-4-4-----4-4-----|-----------------|-----------------||


  &
  E5                (B5)                             (D#5)
    PM|   PM|   PM----|    PM|      PM|    PM|       PM|    PM|
  E E E E E E E E   E E Q  E E Q    E E Q  E E E E   E E Q  E E Q
|-----------------|---------------|----------------|---------------|
|-5-----5-----5---|---------------|----------------|---------------|
|-4-----4-----4---|-----4------4--|-----4------4-3-|-----8------8--|
|-2-2-2-2-2-2-2-2-|-----4------4--|-----4------4-4-|-----8------8--|
|-----------------|-2-2----2-2----|-2-2----2-2-----|-6-6----6-6----|
|-----------------|---------------|----------------|---------------|


                  (G#5)                           (E5)
  PM|    PM|      PM|    PM|      PM|    PM|      PM|    PM|
  E E Q  E E Q    E E Q  E E Q    E E Q  E E Q    E E Q  E E Q
|---------------|---------------|---------------|---------------|
|---------------|-----9------9--|-----9------9--|-----5------5--|
|-----8------8--|-----8------8--|-----8------8--|-----4------4--|
|-----8------8--|-6-6----6-6----|-6-6----6-6----|-2-2----2-2----|
|-6-6----6-6----|---------------|---------------|---------------|
|---------------|---------------|---------------|---------------|


                        Bridge
  E5            B5       C#5
  Gtr I
                          PM---------------
  |----6----|
  E E E E E E E Q.        E E E E E E E E
|--------------------||-------------------|
|-5-5-5-5-5-5-5------||o------------------|
|-4-4-4-4-4-4-4-4----||-------------------|
|-2-2-2-2-2-2-2-4----||-------------------|
|---------------2----||o--4-4-4-4-4-4-4-4-|
|--------------------||-------------------|
|
| Gtr II
| |----6----|
| E E E E E E E Q.        W
|--------------------||-------------------|
|-5-5-5-5-5-5-5------||o------------------|
|-4-4-4-4-4-4-4-4----||--^6---------------|
|-2-2-2-2-2-2-2-4----||--^6---------------|
|---------------2----||o-^4---------------|
|--------------------||-------------------|


                  D#5 E5
 -----------------------------------|
   E  E E E E E E E   E E E E E E E E
|-------------------|-----------------|
|-------------------|-----------------|
|-------------------|-----------------|
|-----------------1-|-2-2-2-2-2-2-2-2-|
|--4--4-4-4-4-4-4---|-----------------|
|-------------------|-----------------|
|
| +H.           E E   W
|-------------------|-----------------|
|-----------------4-|-5---------------|
|-(6)-----------6-3-|-4---------------|
|-(6)-----------6-1-|-2---------------|
|-(4)-----------4---|-----------------|
|-------------------|-----------------|


                                                            1.
                      B/Eb                                   D#5
   PM-----------------------------------------------------------------------|
   E  E E E E E E E    E E E E E E E E    E  E E E E E E E    E E E E E E E E
|-------------------|------------------|-------------------|------------------|
|-------------------|------------------|-------------------|------------------|
|-------------------|------------------|-------------------|------------------|
|--2--2-2-2-2-2-2-2-|------------------|-------------------|--1-1-1-1-1-1-1-1-|
|-------------------|--2-2-2-2-2-2-2-2-|--2--2-2-2-2-2-2-2-|------------------|
|-------------------|------------------|-------------------|------------------|
|
| +W                   W                 +W                   W
|-------------------|------------------|-------------------|------------------|
|-(5)---------------|-^4---------------|-(4)---------------|-^4---------------|
|-(4)---------------|-^4---------------|-(4)---------------|-^3---------------|
|-(2)---------------|-^1---------------|-(1)---------------|-^1---------------|
|-------------------|------------------|-------------------|------------------|
|-------------------|------------------|-------------------|------------------|


                         2.
                B5        F#            (E5)
   PM-------|                           PM    PM
   E  E E E  E  Q   E     Q  Q  Q  Q    E E E E E E E   E
|----------------------||-------------|-------------------||
|---------------------o||-------------|---5-5---5-5-------||
|----------------------||-3--3--3--3--|---4-4---4-4-------||
|--1--1-1-1--1--4---4--||-4--4--4--4--|-2-2-2-2-2-2---/16-||
|---------------2---2-o||-4--4--4--4--|-------------------||
|----------------------||-2--2--2--2--|-------------------||
|
|                                       PM    PM    PM
| +H        +E  Q.        Q  Q  Q  Q    E E E E E E E   E
|----------------------||-------------|-------------------||
|-(4)-------(4)-------o||-------------|---5-5---5-5-----5-||
|-(3)-------(3)-4------||-3--3--3--3--|---4-4---4-4-----4-||
|-(1)-------(1)-4------||-4--4--4--4--|-2-2-2-2-2-2-2---2-||
|---------------2-----o||-4--4--4--4--|-------------------||
|----------------------||-2--2--2--2--|-------------------||


 Guitar Solo
  Tempo II Q=149
  B5
                 ~~~
                                                         |----3-----|
   E  S  E    S  Q.      +E     E    E  S  E    S  E  S  E    +E   +E      E.
|---------------------------------|---------------------------------------------|
|---------------------------------|---------------------17---(17)-(17)---/19----|
|-16----18------20------(20)-----|-16----18------20----------------------------|
|----16------16---------------/16-|----16------16----16-------------------------|
|---------------------------------|---------------------------------------------|
|---------------------------------|---------------------------------------------|
|
|          PM-----------------------------------------------------------------|
|  E  E    E     E  E E   E     E    E  E    E     E  E    E           E      E
|---------------------------------|---------------------------------------------|
|---------------------------------|---------------------------------------------|
|--4--4---------------------------|---------------------------------------------|
|--4--4---------------------------|---------------------------------------------|
|--2--2----2-----2--2-2---2-----2-|--2--2----2-----2--2----2-----------2------2-|
|---------------------------------|---------------------------------------------|


  F#
   ~~~           ~~~~~~~~~~~~~~~
   Q.      S  S  H          +H         +E    E.    E.
|------------------------|------------------------------|
|-19------17p16----------|------------------------------|
|---------------18-------|-(18)-------(18)-15----16----|
|------------------------|------------------------------|
|------------------------|------------------------------|
|------------------------|------------------------------|
|
|       PM--------------------------------------------|
|  E  E E  E     E E E E     E  E E E   E    E  E     E
|------------------------|------------------------------|
|------------------------|------------------------------|
|--3--3------------------|------------------------------|
|--4--4------------------|------------------------------|
|--4--4------------------|------------------------------|
|--2--2-2--2-----2-2-2-2-|---2--2-2-2---2----2--2-----2-|


  G#5
                           ~~~~~~~~~~~~~~~
   E  +E       +E    S  S  H          +Q.      S  S  S  S  S  S  S  S  E
|----------------------------------|-----------------------------------------|
|----------------------------------|-------------------------16h19p16-19b21==|
|-------------------15h16----------|----------------15h16h18-----------------|
|-18-(18)b20==(18)r-------18-------|-(18)-----16h18--------------------------|
|----------------------------------|-----------------------------------------|
|----------------------------------|-----------------------------------------|
|
|               PM----------------------------------------------------|
|  E   E        E    E     E E E E     E  E E  E     E     E     E     E
|----------------------------------|-----------------------------------------|
|----------------------------------|-----------------------------------------|
|----------------------------------|-----------------------------------------|
|--6---6---------------------------|-----------------------------------------|
|--6---6---------------------------|-----------------------------------------|
|--4---4--------4----4-----4-4-4-4-|---4--4-4--4-----4-----4-----4-----4-----|


  E5                                         A5
                      ~~~~~
   +Q     E  E       +Q.      a  E    +S   S  S  S  S  S  S  S  S  S  S  S  S  S  S  S
|--------19------------------16s17-|-(17)-16-14-------------------------------------------|
|-(19)r-----19pb21==(19)r----------|------------17p16p14-------------------------14-------|
|----------------------------------|---------------------16p14p13----------14h16----16----|
|----------------------------------|------------------------------16p14h16----------------|
|----------------------------------|------------------------------------------------------|
|----------------------------------|------------------------------------------------------|
|
|   Q.       Q.            Q          +E      E     E     Q           E     E     E
|----------------------------------|------------------------------------------------------|
|---5--------5-------------5-------|--(5)-------------------------------------------------|
|---4--------4-------------4-------|--(4)-----2-----2-----------------2-----2-------------|
|---2--------2-------------2-------|--(2)-----2-----2-----------------2-----2-------------|
|----------------------------------|----------0-----0-----------------0-----0-------------|
|----------------------------------|------------------------------------------------------|


  B5
   S      +E      S  S  S  S      +E      S  S  S  S      +E      S
|----------------16----------------------16----------------------16-|
|-------------------19p16-------------------19p16-------------------|
|-18b20==(18)r------------18b20==(18)r------------18b20==(18)r------|
|-------------------------------------------------------------------|
|-------------------------------------------------------------------|
|-------------------------------------------------------------------|
|
|                    PM----------------------------------------------
|  E           E     E     E           E     E     E           E
|-------------------------------------------------------------------|
|-------------------------------------------------------------------|
|--4-----------4----------------------------------------------------|
|--4-----------4----------------------------------------------------|
|--2-----------2-----2-----2-----------2-----2-----2-----------2----|
|-------------------------------------------------------------------|


                                                          F#
                                                                  ~~~~
   S  S  S      +E      S  S  S  S  S  S  S  S  S  S  S    S  S  +Q     Q    E  E  E
|----------------------16-------------------------------|------------------------------|
|-19p16-------------------19p16-------------------------|------------------------------|
|-------18b20==(18)r------------19p18-19p18-18p16-------|-16h18-(18)---18---16h18-16---|
|-------------------------------------------------18p16-|------------------------------|
|-------------------------------------------------------|------------------------------|
|-------------------------------------------------------|------------------------------|
|
|-------------------------------------------------|                  PM-----------|
|  E     E           E     E     E     E     E     E       E      E  E  E E  E  E  E
|-------------------------------------------------------|------------------------------|
|-------------------------------------------------------|------------------------------|
|-------------------------------------------------------|--3------3--------------------|
|-------------------------------------------------------|--4------4--------------------|
|--2-----2-----------2-----2-----2-----2-----2-----2----|--4------4--------------------|
|-------------------------------------------------------|--2------2--2--2-2--2--2--2---|


  (F#)
   1/
        ~~
   E    H        +E     S  S  S  S
|----------------------------------|
|----------------------------------|
|-15----------------------15h18p15-|
|------16-------(16)-/16----------|
|----------------------------------|
|----------------------------------|
|
|  PM------------------------|
|  E    E E E E   E     E     E
|----------------------------------|
|----------------------------------|
|----------------------------------|
|----------------------------------|
|----------------------------------|
|--2----2-2-2-2---2-----2-----2----|


  G#5
                                                         1/    1/
                                 ~~~~~~~~~~~~~~~~~~~~~~
   E.    S  S  S  E.    S  S  S  Q      +H         +E    Q      E
|------------------------------------|------------------------------|
|------------------------------------|------------------------------|
|-16----18p16p15-16----18p16p15-16---|-(16)-------(16)-/15-----16---|
|------------------------------------|------------------------------|
|------------------------------------|------------------------------|
|------------------------------------|------------------------------|
|
|           PM-------------------------------------------------|
|  E  E     E     E  E     E     E E     E  E E E   E    E   E  E
|------------------------------------|------------------------------|
|------------------------------------|------------------------------|
|------------------------------------|------------------------------|
|--6--6------------------------------|------------------------------|
|--6--6------------------------------|------------------------------|
|--4--4-----4-----4--4-----4-----4-4-|---4--4-4-4---4----4---4--4---|


                                               T
  E5
   1/      7______________________________|
            ~~~~~~~~~~~~~~~~~~~~~
   Q     E  H        +E     +H..           +E
|------------------------|---------------------|
|------------------------|---------------------|
|-15---------------------|---------------------|
|-------18-18-------(18)-|-(18)-----------(18)-|
|------------------------|---------------------|
|------------------------|---------------------|
|
|  Q.       Q.    Q         +E   H..
|------------------------|---------------------|
|--5--------5-----5------|--(5)----------------|
|--4--------4-----4------|--(4)----------------|
|--2--------2-----2------|--(2)----------------|
|------------------------|---------------------|
|------------------------|---------------------|


   Breakdown/Last Verse
 empo I Q=148
       B5
   2/2
    Q  e e Q  e E   Q  e e q  e e
||----------------|----------------|
||o----7-7----7---|----7-7----7----|
||-----4-4----4---|----4-4----4----|
||----------------|----------------|
||o---------------|----------------|
||----------------|----------------|
|
|   Q  e e Q  e E   Q  e e q  e e
||----------------|----------------|
||o---------------|----------------|
||-----4-4----4---|----4-4----4----|
||-----4-4----4---|----4-4----4----|
||o---------------|----------------|
||----------------|----------------|


     F#                                   G#5
  q  e e q  e e   q   e e  q  e E    Q    e e q  e e   q  e e q  e e
|---------------|-----------------|------------------|---------------|
|---------------|-----------------|-------4-4----4---|----4-4----4---|
|----3-3----3---|-----3-3-----3---|-------1-1----1---|----1-1----1---|
|----4-4----4---|-----4-4-----4---|------------------|---------------|
|---------------|-----------------|------------------|---------------|
|---------------|-----------------|------------------|---------------|
|
| q  e e q  e e   Q.    Q.    Q     +E  E e e q  e e   q  e e q  e e
|---------------|-2-----0---------|------------------|---------------|
|---------------|-------------4---|-(4)--------------|---------------|
|---------------|-----------------|-------1-1----1---|----1-1----1---|
|----4-4----4---|-----------------|-------1-1----1---|----1-1----1---|
|----4-4----4---|-----------------|------------------|---------------|
|---------------|-----------------|------------------|---------------|


     E5                                  B5
  q  e e q  e e   E E e E E E e E     Q  e e Q  e E   Q  e e q  e e
|---------------|------------------||---------------|---------------|
|----5-5----5---|-x-x-5-x-x-x-5-x-o||----7-7----7---|----7-7----7---|
|----4-4----4---|-x-x-4-x-x-x-4-x--||----4-4----4---|----4-4----4---|
|---------------|------------------||---------------|---------------|
|---------------|-----------------o||---------------|---------------|
|---------------|------------------||---------------|---------------|
|
|                             ~
| q  e e q  e e   E E e E E E Q       Q  e e Q  e E   Q  e e q  e e
|---------------|------------------||---------------|---------------|
|---------------|-----------------o||---------------|---------------|
|----4-4----4---|-x-x-4---4-4-6----||----4-4----4---|----4-4----4---|
|----2-2----2---|-x-x-2-4----------||----4-4----4---|----4-4----4---|
|---------------|-----------------o||---------------|---------------|
|---------------|------------------||---------------|---------------|


     F#                              G#5
  q  e e q  e e   q  e e q  e E   Q  e e q  e e
|---------------|---------------|---------------|
|---------------|---------------|----4-4----4---|
|----3-3----3---|----3-3----3---|----1-1----1---|
|----4-4----4---|----4-4----4---|---------------|
|---------------|---------------|---------------|
|---------------|---------------|---------------|
|
| q  e e q  e e   q  e e q  e e   Q  e e q  e e
|---------------|---------------|---------------|
|---------------|---------------|---------------|
|---------------|---------------|----1-1----1---|
|----4-4----4---|----4-4----4---|----1-1----1---|
|----4-4----4---|----4-4----4---|---------------|
|---------------|---------------|---------------|


                               D.S.S. al Dbl. Coda
                  E5                F#5
  Gtrs I, II
                  <
  q  e e q  e e   E E E E E E E E   E E E E E E E E
|---------------|-----------------|-----------------||
|----4-4----4---|-5-5-5-5-5-5-5-5-|-7-7-7-7-7-7-7-7-||
|----1-1----1---|-4-4-4-4-4-4-4-4-|-6-6-6-6-6-6-6-6-||
|----1-1----1---|-2-2-2-2-2-2-2-2-|-4-4-4-4-4-4-4-4-||
|---------------|-----------------|-----------------||
|---------------|-----------------|-----------------||


   Outro
    &&
    B5   E5   B5     E5   C#sus4    B5
    Q  E Q  E Q    E Q  E q  q   4x W          E H     Q.
||---------------|---------------||----------|---------------*|
||o------5--x----|---5--x-7--7--o||----------|---------------*|
||--4--x-4--x-4--|-x-4--x-6--6---||-4--------|-4-4----------*|
||--4--x-2--x-4--|-x-2--x-4--4---||-4--------|-4-4----------*|
||o-2--x------2--|-x------4--4--o||-2--------|-2-2----------*|
||---------------|---------------||----------|---------------*|


bueno aqui tienen la cancion espero que la saquen y sigan practicando bye

Fuente original: LaCuerda
Colaborador original: orlando [orlando158@hotmail.com]
Aviso: Este fichero es trabajo propio de su transcriptor y representa su interpretación personal de la canción. El material contenido en esta página es para exclusivo uso privado, por lo que se prohibe su reproducción o retransmisión, así como su uso para fines comerciales.

Comentarios en Facebook: