Chaman, Mana (tablatura)

Autor: Anonimo | 35366 visualizaciones

Esta trnscripcion va dedicada al amigo BOLO.

ligados: lg
slide : sl
vibrato (se hace con tremolo bar): t

Las estrofas se tocan con esta melodia:

e-----7--------3----------5---------2------------------
B---7---7----3---3------5---5-----2---2----------------
G-----------------4---------------------3--------------
D-9--------5----------7---------4----------------------
A------------------------------------------------------
E------------------------------------------------------


Los Acordes del coro son los siguientes:
  Bm   D5   E5   G   A   F#
e-7----5----7----3---5---2-----------------------------
B-7----5----7----3---5---2-----------------------------
G-7----7----9----4---6---3-----------------------------
D-9----7----9----5---7---4-----------------------------
A-9----5----7----5---7---4-----------------------------
E-7----5----7----3---5---2-----------------------------

Bm  D5 E5          G D5 E5          A D5 E5            
Jamas  dejes de amar cuenta el Chaman, el amor es 
  G  F# A
todo


Bm  D5 E5        G D5 E5         A D5 E5             
Jamas dejes de amar, dejes de soñar, el amor es 

 G   F#  A  Bm
todo

Solo(completo):

e--7--10--5-7------------------------------------------
B--------------10-7------------------------------------
G-------------------9-7-----7-7-8-9--7-9--4--7-9--4----
D-----------------------9-7----------------------------
A------------------------------------------------------
E------------------------------------------------------

e----------------------10-----------------------------
B----------------10----------10------------------------
G-7-9-9-sl-11-11----11----11----9--------12-10---------
D----------------------------------lg-11-------11-9-11-
A------------------------------------------------------
E------------------------------------------------------

e------------------------------------------5-5--5-5----
B--12-10---------12-10---------------------7-7--7-7----
G--------11-9-11-------11-9----------------7-7--7-7----
D---------------------------12-9-----------7-7--7-7----
A--------------------------------12-9--7t--5-5--5-5----
E------------------------------------------5-5--5-5----

e--5-5---5-5---5sl7-10---------------------------------
B--7-7---9-7-------------------------------------------
G--7-7---7-7-------------------------------------------
D--7-7---7-7-------------------------------------------
A--5-5---5-5-------------------------------------------
E--5-5---5-5-------------------------------------------


No sé si tiene errores; si es tocada bien se oye 

igualito. Hasta entonces.

Fuente original: LaCuerda
Colaborador original: andres emmanuel berrido de moya [aberrido@hotmail.com]
Aviso: Este fichero es trabajo propio de su transcriptor y representa su interpretación personal de la canción. El material contenido en esta página es para exclusivo uso privado, por lo que se prohibe su reproducción o retransmisión, así como su uso para fines comerciales.

Comentarios en Facebook: