Arrancame El Corazon, Mana (tablatura)

Autor: luis2468 | 39303 visualizaciones

En el intro:
  Aki va un efecto          … y aki cambia
e|--------------------------|---------------------|
B|--------------------------|---------------------|
G|-10-10-10-10-10-----------|-7-7-7-7-7-----------|
D|-10-10-10-10-10-7-7-7-7-7-|-7-7-7-7-7-8-8-------|
A|-8--8--8--8--8--7-7-7-7-7-|-5-5-5-5-5-8-8-10-10-|
E|----------------5-5-5-5-5-|-----------6-6-8--8--|

Se repite y entra esto:

e|----------------|
B|------------8---|
G|-----9----------|
D|-7-7----7-7-----|
A|----------------|
E|----------------|

Yoo sigo solo…    … cuando empieza acantar las 5tas son tocadas
                    apagadas

Yaa anunciaste…  dice eso y entra :

e|--------------------------|
B|-----------8-----------6--|
G|-----9-----------9--------|
D|-7-7---7-7---7-7---7-7----|
A|--------------------------|
E|--------------------------|

Silencio en el telefono…
    X3
e|-----8--|-----8-----10--|
B|---6----|---6-----6-----|
G|-7------|-7-----7-------|
D|--------|---------------|
A|--------|---------------|
E|--------|---------------|

Arrancame el…       la segunda vez k esntra lo anterior esta parte entra:
      X3
e|------------|--------|------------------------------------------------|
B|---------6--|-6------|------------------------------------------------|
G|-------9----|----9-5-|-777777-999999-1010101010-121212121212-14141414-|
D|-7-7-7------|--------|------------------------------------------------|
A|------------|--------|------------------------------------------------|
E|------------|--------|------------------------------------------------|

Solo:

e|------------------------------------------------------|
B|------------------------------------------------------|
G|-----------------------------------10-7---------------|
D|----------5/8--8-7---5-55555555(7)------10-7-10-10/12-|
A|-/5-5-7-8----------8----------------------------------|
E|------------------------------------------------------|

e|-----------------------------------------------|
B|-------13-10-------------------13--------------|
G|-10-12-------12-10-12-12-12(14)----12-10-------|
D|-----------------------------------------12----|
A|-----------------------------------------------|
E|-----------------------------------------------|

e|------------------------------------------------------|
B|----------------------15(17)--------------------------|
G|-10-12h10---------------------9(10)-10(12)-12(14)(12)-|
D|----------12-10-12-12---------------------------------|
A|------------------------------------------------------|
E|------------------------------------------------------|
Calificar esta versión:
Aviso: Este fichero es trabajo propio de su transcriptor y representa su interpretación personal de la canción. El material contenido en esta página es para exclusivo uso privado, por lo que se prohibe su reproducción o retransmisión, así como su uso para fines comerciales.
Más versiones de Arrancame El Corazon, Mana
Arrancame El Corazon
acordes
Arrancame El Corazon
tablatura
Arrancame El Corazon
video guitarra
Descubre más canciones de Mana