Amor Clandestino, Mana (tablatura)

Autor: Anónimo | 21795 visualizaciones

intro 

armonica
e-----5---5-------7---7---7------------------
B-------------3-----7---7--7---8---8----8----
G-------7--7-6-6-----7---7-------7---7---7---
D--------7------------------------9---9------
A----5-----------9---------10----------------
E--------------------------------------------

e---5---5--5---------------------------
B-----3--3--3--------------------------
G-/6---6--6----------------------------
D-------------------------------------- atencion esto va junto 
A--------------------------------------  al comienzo de la letra
E--------------------------------------
D     A      Bm        G
eres inevitable amor casi como 
e--------------------------------------
B---3--------------3--------0----------
G--2-2-----2--------4------0-0---------
D-0-------2-------4--------------------
A--------0----0-2----------------------
E-----------------------3--------------
      D       A      Bm       G 
respirar,casi como respirar 
e----------------------------------------
B----3--3-------------3-----0------------
G------2-2------2------4-----------------
D----0---------2-----4-----------0T2-0--- t:tap (solamente toca el traste 
A-------------0---0-2---------0t2--------  y el siguiente solo lo tapa)
E--------------------------3-------------
D        A           Bm            G 
llegue a tus playas impuntual pero no me 
e--------------------------------------
B---3--------------3--------0----------
G--2-2-----2--------4------0-0---------
D-0-------2-------4--------------------
A--------0----0-2----------------------
E-----------------------3--------------
D
rendire 
e------------------------------------
B----3--3-------------3--------------
G------2-2------2------4-------------
D----0---------2-----4---------0----- t:tap (solamente toca el traste 
A-------------0---0-2-----0t2-0------  y el siguiente solo lo tapa)
E------------------------------------
       D            A           Bm            G
soy el viento sin destino que se cuela en tus olas amor
e-------------------------------------------------
B------3-----------2-----------4-------------3----
G-----2-2---------2-2---------3-3-----------4-4---
D------------------------------------------5------
A-------------------------------------------------
E-------------------------------------------------
       D            A           Bm            G
soy ahora un clandestino que se juega hasta la vida mi amor
e-------------------------------------------------
B------3-----------2-----------4-------------3----
G-----2-2---------2-2---------3-3-----------4-4---
D------------------------------------------5------
A-------------------------------------------------
E-------------------------------------------------
    D  A   Bm   G       D  A   Bm   G    D   A   
clandestino amada amaaaaaa aamor     noooooooo
e---------------------0---------------------------
B-----3-3-3-3-3---2--2-2----3-3-3-2-2-3--4--------
G-----2-2-2-2-2---2-2-------2-2-2-2-2-2-2-2------- x2
D-------------------------------------------------  GUITARRA 1 
A-------------------------------------------------
E-------------------------------------------------

e----2--0-0-3-3-3-3-5--5-5-5-5-5-------
B-2/3-3--2-2-2-2-3-3-3-3-3-3-3-3-------
G-------------------------------------- GUITARRA 2 
D--------------------------------------
A--------------------------------------
E--------------------------------------

coro:  
            D                      Bm
mi amor clandestino en el silencio y el dolor
e--------------------------------------
B-3-3-3-3-3-3-3-3-3-3-3-3-3-3-3-3-3----
G-2-2-2-2-2-2-2-2-2-4-4-4-4-4-4-4-4----
D--------------------------------------
A--------------------------------------
E--------------------------------------
        G                            A
se nos cae y todo el cielo de tanto esperar 
e-----------------3/5-5-5-5-5-5/7-5----
B-3-3-3-3-3-3-3-3-3/5-5-5-5-5-5/7-5----
G-4-4-4-4-4-4-4-4----------------------
D--------------------------------------
A--------------------------------------
E--------------------------------------
D                      Bm
inevitable casi como respirar 
e--------------------------------------
B-3-3-3-3-3-3-3-3-3-3-3-3-3-3-3-3-3----
G-2-2-2-2-2-2-2-2-2-4-4-4-4-4-4-4-4----  aqui los acordes los hace 
D--------------------------------------  en una octava mas alta
A--------------------------------------
E--------------------------------------
        G                            A
se nos cae y todo el cielo de tanto esperar 
e-----------------3/5-5-5-5-5-5/7-5----
B-3-3-3-3-3-3-3-3-3/5-5-5-5-5-5/7-5---- aqui los acordes en una
G-4-4-4-4-4-4-4-4---------------------- octava mas alta
D--------------------------------------
A--------------------------------------
E--------------------------------------
D
clandestino

intro:
 
armonica
e-----5---5-------7---7---7------------------
B-------------3-----7---7--7---8---8----8----
G-------7--7-6-6-----7---7-------7---7---7---
D--------7------------------------9---9------
A----5-----------9---------10----------------
E--------------------------------------------

e---5---5------------------------------
B-----3--3-----------------------------
G-/6---6--6----------------------------
D-------------------------------------- atencion esto va junto 
A--------------------------------------  al comienzo de la letra
E--------------------------------------
D     A      Bm        G
el universo conspiro inevitable corazon 
e----2-0------2-3----------
B---3---2-2--3---3--------- 
G--2-----2--2-----2--------
D--------------------------
A--------------------------
E--------------------------
D     A      Bm        G
clandestino eterno amor
e----2-0------2-3----------
B---3---2-2--3---3--------- 
G--2-----2--2-----2--------
D--------------------------
A--------------------------
E--------------------------
D             A           Bm        G
pero me duele no gritar tu nombre con toda libertad
e----2-0------2-3----------
B---3---2-2--3---3--------- 
G--2-----2--2-----2--------
D--------------------------
A--------------------------
E--------------------------
D     A      Bm        G
bajo sospecha ay que callar
e----2-0------2-3----------
B---3---2-2--3---3--------- 
G--2-----2--2-----2--------
D--------------------------
A--------------------------
E--------------------------
D                A            Bm               G
y te sueño piel con piel ahogado en besos y tus risas amor
e-------------------------------------------------
B------3-----------2-----------4-------------3----
G-----2-2---------2-2---------3-3-----------4-4---
D------------------------------------------5------
A-------------------------------------------------
E-------------------------------------------------
D            A             Bm             G
y me hundo en el calor que hay en tus muslos en tu mar
e-------------------------------------------------
B------3-----------2-----------4-------------3----
G-----2-2---------2-2---------3-3-----------4-4---
D------------------------------------------5------
A-------------------------------------------------
E-------------------------------------------------
              D      A         Bm        G       
llorando en silencio temblando tu ausencia 
               D       A     Bm     G     D   A   
rogandole al cielo y fingiendo estar muy bien  nooo
e---------------------0---------------------------
B-----3-3-3-3-3---2--2-2----3-3-3-2-2-3--4--------
G-----2-2-2-2-2---2-2-------2-2-2-2-2-2-2-2------- x2
D-------------------------------------------------  GUITARRA 1 
A-------------------------------------------------
E-------------------------------------------------

e----2--0-0-3-3-3-3-5--5-5-5-5-5-------
B-2/3-3--2-2-2-2-3-3-3-3-3-3-3-3-------
G-------------------------------------- GUITARRA 2 
D--------------------------------------
A--------------------------------------
E--------------------------------------
}coro:  
            D                      Bm
mi amor clandestino en el silencio y el dolor
e--------------------------------------
B-3-3-3-3-3-3-3-3-3-3-3-3-3-3-3-3-3----
G-2-2-2-2-2-2-2-2-2-4-4-4-4-4-4-4-4----
D--------------------------------------
A--------------------------------------
E--------------------------------------
        G                            A
se nos cae y todo el cielo de tanto esperar 
e-----------------3/5-5-5-5-5-5/7-5----
B-3-3-3-3-3-3-3-3-3/5-5-5-5-5-5/7-5----
G-4-4-4-4-4-4-4-4----------------------
D--------------------------------------
A--------------------------------------
E--------------------------------------
D                      Bm
inevitable casi como respirar 
e--------------------------------------
B-3-3-3-3-3-3-3-3-3-3-3-3-3-3-3-3-3----
G-2-2-2-2-2-2-2-2-2-4-4-4-4-4-4-4-4----  aqui los acordes los hace 
D--------------------------------------  en una octava mas alta
A--------------------------------------
E--------------------------------------
        G                            A
se nos cae y todo el cielo de tanto esperar 
e-----------------3/5-5-5-5-5-5/7-5----
B-3-3-3-3-3-3-3-3-3/5-5-5-5-5-5/7-5---- aqui los acordes en una
G-4-4-4-4-4-4-4-4---------------------- octava mas alta
D--------------------------------------
A--------------------------------------
E--------------------------------------
D
clandestino
   Bm                           A
No te engañes mas, ya no te mientas
e--------------------------------------
B----3--2---------2--------------------
G---4-4--4-------2-2---4---------------
D--4---4--4-----2---2---2--------------
A-2------------0---------5-------------
E--------------------------------------
    G                   D
si aire ya pasó, ya pasó
e----------0--------0--2--0-------
B-------0---3-----3--2--3--2------
G------0-0---0---2----3--2--3-----
D-----0---0-----0-----------------
A---------------------------------
E--3------------------------------
         F#m                Bm
y de verdad, ya no tengas miedo
e--------------------------------------
B--------------------------------------
G--------------------------------------
D--------------------------------------
A-9-9-9-9-9-9-9-9-9-/9-9-9-9-9-9-9-9---
E-5-5-5-5-5-5-5-5-5-/7-7-7-7-7-7-7-7---
      Em                       A 
solo tu mantienes mi respiración
e------------------------------------------------
B------------------------------------------------
G------------------------------------------------
D------------------------------------------------
A---/14-14-14-14-14-14-14-14/7-------------------
E---/12-12-12-12-12-12-12-12/5-------------------

armonica  (D Bm G A) 
D                             Bm
hace tanto que yo esperaba el viento amor

e--------------------------------------
B-3-3-3-3-3-3-3-3-3-3-3-3-3-3-3-3-3----
G-2-2-2-2-2-2-2-2-2-4-4-4-4-4-4-4-4----
D--------------------------------------
A--------------------------------------
E--------------------------------------
G                              A 
cae el llanto el cielo de esperar
e-----------------3/5-5-5-5-5-5/7-5----
B-3-3-3-3-3-3-3-3-3/5-5-5-5-5-5/7-5----
G-4-4-4-4-4-4-4-4----------------------
D--------------------------------------
A--------------------------------------
E--------------------------------------
D                           Bm
hace tanto que yo espere tu luz amor
e--------------------------------------
B-3-3-3-3-3-3-3-3-3-3-3-3-3-3-3-3-3----
G-2-2-2-2-2-2-2-2-2-4-4-4-4-4-4-4-4----
D--------------------------------------
A--------------------------------------
E--------------------------------------
G                    A         D
hay amor, hay amor, haaay amor
e-----------------3/5-5-5-5-5-5/7-5----
B-3-3-3-3-3-3-3-3-3/5-5-5-5-5-5/7-5----
G-4-4-4-4-4-4-4-4----------------------
D--------------------------------------
A--------------------------------------
E--------------------------------------
                     Bm
Se nos cae todo el cielo,
e--------------------------------------
B-3-3-3-3-3-3-3-3-3-3-3-3-3-3-3-3-3----
G-2-2-2-2-2-2-2-2-2-4-4-4-4-4-4-4-4----
D--------------------------------------
A--------------------------------------
E-------------------------------------- 
                    G                   A 
se nos cae todo el cielo, de tanto esperar
e--------------------------------------
B-3-3-3-3-3-3-3-3-3-3-3-3-3-3-3-3-3----
G-2-2-2-2-2-2-2-2-2-4-4-4-4-4-4-4-4----
D--------------------------------------
A--------------------------------------
E--------------------------------------
                    D            Bm
mi amor ya no te engañes, no te mientas corazón
e--------------------------------------
B-3-3-3-3-3-3-3-3-3-3-3-3-3-3-3-3-3----
G-2-2-2-2-2-2-2-2-2-4-4-4-4-4-4-4-4----
D--------------------------------------
A--------------------------------------
E--------------------------------------
        G                              A  D
se nos cae todo el cielo, entiendelo amor.
e--------------------------------------
B-3-3-3-3-3-3-3-3-3-3-3-3-3-3-3-3-3----
G-2-2-2-2-2-2-2-2-2-4-4-4-4-4-4-4-4----
D--------------------------------------
A--------------------------------------
E--------------------------------------

e---5--5-------------------
B----3--3-3----------------
G-/6--6--6-----------------
D----------7---------------
A--------------------------
E--------------------------

Comentarios del colaborador: cualquier duda angelox_97@hotmail.com

Aviso: Este fichero es trabajo propio de su transcriptor y representa su interpretación personal de la canción. El material contenido en esta página es para exclusivo uso privado, por lo que se prohibe su reproducción o retransmisión, así como su uso para fines comerciales.
Más versiones de Amor Clandestino, Mana
Amor Clandestino
acordes
Amor Clandestino (ver 2)
acordes
Amor Clandestino (ver 3)
acordes
Amor Clandestino
tablatura
Amor Clandestino
armonica
Descubre más canciones de Mana

Comentarios en Facebook: