El Vaso, Malacates Trébol Shop (acordes)

Autor: david_pxndx | 31799 visualizaciones

amcd7g
 intro
|-1-----------------------------|
|-3-----------------------------|
|-2--9------7-7-7--9------7-7---|
|----9--11--7-7-7--9--11--7-7---|
|----7--11--5-5-5--7--11--5-5---|
|-------9-------------9---------|

verso
   G   C   Am   D7  G  C  D7                       
|--3-------------1--3------1------|
|--3---1----1----3--3--1---3------|
|--0---0----2----2--0--0---2------|
|--0---2----2-------0--2----------|x2
|--2---3------------2--3----------|
|--3---x------------3-------------|
chekeen bien los cambios

coro
    Am   D7
|--------1---------|
|---1----3---------|
|---2----2---------|
|---2--------------|
|------------------|
|------------------|

intermedio
    Am   D7   C
|--------1----------|
|---1----3----1-----|
|---2----2----0-----|
|---2---------2-----|
|-------------3-----|
|-------------------|
chekeen los kmbios y el numero de veces q se tok

Verso
   G   C   Am   D7  G  C  D7                       
|--3-------------1--3------1------|
|--3---1----1----3--3--1---3------|
|--0---0----2----2--0--0---2------|
|--0---2----2-------0--2----------|x2
|--2---3------------2--3----------|
|--3---x------------3-------------|
chekeen bien los cambios

coro
    Am   D7
|--------1---------|
|---1----3---------|
|---2----2---------|
|---2--------------|
|------------------|
|------------------|
chekeen los cambios

y para terminar tokn esto
    Am   D7   C
|--------1----------|
|---1----3----1-----|
|---2----2----0-----|
|---2---------2-----|
|-------------3-----|
|-------------------|

y la ultima nota es:
D7

weno eso es todo!!
ojala les sirva d algo mi tab!!
reclamos, felicitaciones, dudas, fans d MALACATES TREBOL SHOP etc...
escríbanme a tankian_28@hotmail.com

 
Calificar esta versión:
Aviso: Este fichero es trabajo propio de su transcriptor y representa su interpretación personal de la canción. El material contenido en esta página es para exclusivo uso privado, por lo que se prohibe su reproducción o retransmisión, así como su uso para fines comerciales.
Más versiones de El Vaso, Malacates Trébol Shop
El Vaso
acordes
El Vaso (ver 2)
acordes
Descubre más canciones de Malacates Trébol Shop