Czardas, Mago De Oz (tablatura) (ver 2)

Autor: Anónimo | 35058 visualizaciones

Esta es la parte del violin no la vi en la unica 
transcripcion de Czardas pero igual aqui les va.
CZARDAS                                     


                                                  
E||-----8----4------------|----------------------|
B||---------------8----4--|----------------------|
G||--5--------------------|--7--5----4--5--------|
D||-----------------------|----------------------|
A||-----------------------|----------------------|
E||-----------------------|----------------------|


                                                          
----------------------------------|----------------------|
----3-4h3---3-4h3---3-4h3---3-4h3-|--5--3----2--3--------|
--5-------5-------5-------5-------|----------------------|
----------------------------------|----------------------|
----------------------------------|----------------------|
----------------------------------|----------------------|


                                                                      
----3-4h3---3-4h3---3-4h3---3-4h3-|----1-3h1---1-3h1---1-3h1---1-3h1-|
--6-------6-------6-------6-------|--4-------4-------4-------4-------|
----------------------------------|----------------------------------|
----------------------------------|----------------------------------|
----------------------------------|----------------------------------|
----------------------------------|----------------------------------|


                                                                               
----0-2h0---0h2-0---0-2h0---0-2h0-|--3----------------|-----8----4------------|
--3-------3-------3-------3-------|-------------------|---------------8----4--|
----------------------------------|-------------------|--5--------------------|
----------------------------------|-------------------|-----------------------|
----------------------------------|-------------------|-----------------------|
----------------------------------|-------------------|-----------------------|


                                                          
----------------------|----------------------------------|
----------------------|----3-4h3---3-4h3---3-4h3---3-4h3-|
--7--5----4--5--------|--5-------5-------5-------5-------|
----------------------|----------------------------------|
----------------------|----------------------------------|
----------------------|----------------------------------|


                                                          
----------------------|----3-4h3---3-4h3---3-4h3---3-4h3-|
--5--3----2--3--------|--6-------6-------6-------6-------|
----------------------|----------------------------------|
----------------------|----------------------------------|
----------------------|----------------------------------|
----------------------|----------------------------------|


                                                                      
----1-3h1---1-3h1---1-3h1---1-3h1-|--------------------------4-5-6-7-|
--4-------4-------4-------4-------|------------------4-5-6-7---------|
----------------------------------|----------4-5-6-7-----------------|
----------------------------------|--5-6-7-8-------------------------|
----------------------------------|----------------------------------|
----------------------------------|----------------------------------|


                                                         
-------3-------------|----------4-1-1-1---------4-1-1-1-|
---------------------|----------------------------------|
--5---------5--------|--3-3-3-3---------3-3-3-3---------|
---------------------|----------------------------------|
---------------------|----------------------------------|
---------------------|----------------------------------|


                                                               
--4-3h1--------------------|----------------------------------|
--------4-3h1--------------|----------6-3-3-3---------6-3-3-3-|
--------------3-1h0--------|----------------------------------|
---------------------------|--5-5-5-5---------5-5-5-5---------|
---------------------------|----------------------------------|
---------------------------|----------------------------------|


                                                               
---------------------------|----3-4h3---3-4h3---3-4h3---3-4h3-|
--4h3----------------------|--6-------6-------6-------6-------|
------5-3------------------|----------------------------------|
----------6-5-3------------|----------------------------------|
----------------6h3--------|----------------------------------|
---------------------------|----------------------------------|


                                                                      
----1-3h1---1-3h1---1-3h1---1-3h1-|--------------------------4-5-6-7-|
--4-------4-------4-------4-------|------------------4-5-6-7---------|
----------------------------------|----------4-5-6-7-----------------|
----------------------------------|--5-6-7-8-------------------------|
----------------------------------|----------------------------------|
----------------------------------|----------------------------------|


                                                                     
---------------------|-----8----4------------|----------------------|
-------8-------------|---------------8----4--|----------------------|
--5---------5--------|--5--------------------|--7--5----4--5--------|
---------------------|-----------------------|----------------------|
---------------------|-----------------------|----------------------|
---------------------|-----------------------|----------------------|


                                                          
----------------------------------|----------------------|
----3-4h3---3-4h3---3-4h3---3-4h3-|--5--3----2--3--------|
--5-------5-------5-------5-------|----------------------|
----------------------------------|----------------------|
----------------------------------|----------------------|
----------------------------------|----------------------|


                                                                      
----3-4h3---3-4h3---3-4h3---3-4h3-|----1-3h1---1-3h1---1-3h1---1-3h1-|
--6-------6-------6-------6-------|--5-------5-------5-------5-------|
----------------------------------|----------------------------------|
----------------------------------|----------------------------------|
----------------------------------|----------------------------------|
----------------------------------|----------------------------------|


                                                                               
----0-2h0---0-2h0---0-2h0---0-2h0-|--3----------------|-----8----4------------|
--3-------3-------3-------3-------|-------------------|---------------8----4--|
----------------------------------|-------------------|--5--------------------|
----------------------------------|-------------------|-----------------------|
----------------------------------|-------------------|-----------------------|
----------------------------------|-------------------|-----------------------|


                                                          
----------------------|----------------------------------|
----------------------|----3-4h3---3-4h3---3-4h3---3-4h3-|
--7--5----4--5--------|--5-------5-------5-------5-------|
----------------------|----------------------------------|
----------------------|----------------------------------|
----------------------|----------------------------------|


                                                          
----------------------|----3-4h3---3-4h3---3-4h3---3-4h3-|
--5--3----2--3--------|--6-------6-------6-------6-------|
----------------------|----------------------------------|
----------------------|----------------------------------|
----------------------|----------------------------------|
----------------------|----------------------------------|


                                                                      
----1-3h1---1-3h1---1-3h1---1-3h1-|--------------------------4-5-6-7-|
--5-------5-------5-------5-------|------------------4-5-6-7---------|
----------------------------------|----------4-5-6-7-----------------|
----------------------------------|--5-6-7-8-------------------------|
----------------------------------|----------------------------------|
----------------------------------|----------------------------------|


                       
---------------------||
-------8-------------||
--5---------5--------||
---------------------||
---------------------||
---------------------||


No se olviden de que todo el tema va acompañado 
por las notas re y la menor ojo que solo es parte 
del violin y si tienen quejas insultos pueden 
mandarmelas a haggard666@hispavista.com
Calificar esta versión:
Aviso: Este fichero es trabajo propio de su transcriptor y representa su interpretación personal de la canción. El material contenido en esta página es para exclusivo uso privado, por lo que se prohibe su reproducción o retransmisión, así como su uso para fines comerciales.
Más versiones de Czardas, Mago De Oz
Czardas
tablatura
Czardas (ver 2)
tablatura
Descubre más canciones de Mago De Oz