Cuanto Cabe En Un Adiós, Mago De Oz (tablatura)

Autor: Anónimo | 46187 visualizaciones

ola es mi primer cancion aqui les va
aver que les parece:

solo:3:18
1|----12-------12---------------|
2|-10----10-9-----9-7-7/9-7/9/7-|
3|------------------------------|
4|------------------------------|
5|------------------------------|
6|------------------------------|

1|-----------------5-4-2-4------|
2|-4-4h5-5/7-7------------------|
3|-------------4----------------|
4|------------------------------|
5|------------------------------|
6|------------------------------|

1|---------------------------14/16-17/19--------|
2|------------------17-17/19--------------------|
3|----------------------------------------------|
4|-6/7-6-4---4-6--------------------------------|
5|---------7-----7------------------------------|
6|----------------------------------------------|

1|-16/17-16-14-16----------14/16-17b19----------|
2|----------------17-17/19----------------------|
3|----------------------------------------------|
4|----------------------------------------------|
5|----------------------------------------------|
6|----------------------------------------------|

1|-19/21-19-19----------------------------------|
2|----------------------------------------------|
3|----------------------------------------------|
4|---------------9-7-6-7-9-7-6-7-9-7-6-7-9-7-6--|
5|----------------------------------------------|
6|----------------------------------------------|

1|----------------------------------------------|
2|----------------------------------------------|
3|----------------------------------------------|
4|-7--11-9-8-9-11-9-8-9-11-9-8--11-9-8--11-9-8--|
5|----------------------------------------------|
6|----------------------------------------------|

1|------------14/16-14----------|
2|--12/14-12--------------------|
3|------------------------------|
4|------------------------------|
5|------------------------------|
6|------------------------------|

porfa dejenme una opinion: hector_rock9@hotmail.com
busquenme en el face como" hector bor jaja "
Calificar esta versión:
Aviso: Este fichero es trabajo propio de su transcriptor y representa su interpretación personal de la canción. El material contenido en esta página es para exclusivo uso privado, por lo que se prohibe su reproducción o retransmisión, así como su uso para fines comerciales.
Más versiones de Cuanto Cabe En Un Adiós, Mago De Oz
Cuanto Cabe En Un Adiós
acordes
Cuanto Cabe En Un Adiós
tablatura
Descubre más canciones de Mago De Oz