Creo, Mago De Oz (tablatura)

Autor: fherxo | 17893 visualizaciones

Estrofa:

E: ---------------------5--------------------------------------
B: --------5--6--8---8----8--6--8----8--6-5-6-8----6-6--5-5----
G: --5--7----------------------------------------5------------7


E: --------------------5--------------------------------8---7/8
B: -------5--6--8---8----8--6--8--8--6 -5-6-8---6-5------------
G: --5--7-------------------------------------5------5---------



E:--8--7--5-----------5--------8--7--5-----------5----------------
B:----------5-8--8--------5-5-----------5---8-8------8-6-5-----5--
G:----------------------5----------------------------------7-5---7


E:--8--7--5------------------5-----5-5-7-8-5-7----10--12--10---15
B:----------5--8-8----8-6-8-----8---------------13----------------
G:--------------------------------------------------------     x2

Estribillo_

E:---------12--15---12-------17-19-20---20-19-17-20--------------
B:--13-15---------------15--------------------------17---15-15---

E:--------------15---------15------------------------------------
B:-----15-17-------17-15------15-----17--------------------------
G--17-----------------------------17-----17-16--17-16------------
D:----------------------------------------------------19—17/19/17

E:----------12--15--17--15---17-19-20---20-19-17-20------------
B:--13-15--------------------------------------------17--18/17-15

E:-------------15---------15-----------------------------17-15-
B:-----15-17-------17-15------15-----17-------------------------
G--17-----------------------------17------17-16--17-16----------
D------------------------------------------------------19-----  x2






Final:


E: ----------------5----------------------------8--10-12-10-8/10-8
B: ------5-6-8--8----8--6-8--8--6-5-6-8---6-5---------------------
G: -5--7--------------------------------5-----5-------------------



Gaita:

E:--12-10----------------------------------------------------
B:---------13-----13-12-13-10-----10-12-13-------------------
G:------------------------------------------12-10-9----------
D:------------10-------------------------------------12-10---


E:---------12--12--------13---13-12-13-----------------------
B:--13-15----------15-13----------------13/15----15--------15
G:-----------------------------------------------------------

E:-----------------------------------------------------------
B:----------------------------10---10-12-13------------------
G:--------9-10--12--12-9----------------------12-10-9--------
D:----10------------------10---------------------------12-10-

(todos juntos xD)

E:------------------------10---10-12-10--12-13-15--13-12-17--17-19
B:-13-12-10--12-13-12--13----13-----------------------------------

Se repite el estribillo

etc.

NOTA:

El solo de flauta y violín al principio es como el estribillo
 pero con alguna varicación

El solo de guitarra acústica también es como el estribillo pero acaba así:

E:------------------------------
B:------------------------------
G:--12-9-------------9-12-------
D:--------12-10-12--------------
Calificar esta versión:
Aviso: Este fichero es trabajo propio de su transcriptor y representa su interpretación personal de la canción. El material contenido en esta página es para exclusivo uso privado, por lo que se prohibe su reproducción o retransmisión, así como su uso para fines comerciales.
Más versiones de Creo, Mago De Oz
Creo
acordes
Creo
tablatura
Creo
teclado
Descubre más canciones de Mago De Oz