Brisa De Otoño, Mago De Oz (tablatura)

Autor: Anónimo | 26753 visualizaciones

Esta es mi primera aportación a la página, puesto que soy novato
y tengo apenas unos meses tocando no se si sean los acordes
correctos, es lo que me dio mi oído y a mi me gusto como sonó



---------------------------------------------------------------------


e--------------------------------------------------------  esta parte
B-3--3-5-6-5-3--------3-5-6-5-3------3-5-6-5-3-----------  se toca en
G--------------3-------------------------------2------2--  todas las
D--------------------------------4------------------4----  estrofas.-
A--------------------------------------------------------  1ª guitarra
E--------------------------------------------------------

e------------------------------10-13-12----------------------
B------------6-8-6----------------------15-15---------------- 2ª
G------------------7-5-7----------------------8.9.10-8-6-8-10 guitarra
D------------------------------------------------------------
A------------------------------------------------------------
E------------------------------------------------------------

(esta parte es suave)

Dm
Sentada frente al mar
          A#
Buscando una estrella pasar
    C
Las olas te dicen
                   A7      Dm A# C A7  (ahora empieza mas fuerte)
Dame otra oportunidad

    Dm
Llorando se abraza fuerte
           A#
Al primer beso que le dio
      C
Un muñeco llora
                     A7
Su sueño no se cumplió

    Dm
Sus ojos se pierden lejos
           A#
Al día en que le conoció                 (la parte entre
     C                                    los guiones
La luna le ha dicho                       fue modificada
                        A7                por:
Que una estrella oyó su voz               Mario Fernandez
                                          cualquier cosa
                                          me hablan al correo
                                          correo:
            F                             no.me.agreguen@hotmail.com)
Cuando las alas del amor
             C
Rocen tus labios y una flor
   A#                            F-C      (saludos A una super hermana
Amanezca una mañana en tu habitación       hermana: Sandra
            F                              de santiago y a ti pequeño
Si sientes muy dentro de ti                orlando que me ayudaste a
           C                               sacar algunos acordes)
En las entrañas una cálida voz
        A#                F-C-Dm A# C A7
No la dejes escapar esta vez



(mientras se toca el solo y el puente se tocan estos acordes)
 Dm A# C A7


(aqui va el solo que esta sacando mi hermano y ahi lo subire)

e-13-12-10-------13-12-10-------10----------------------------
B----------10-------------11-------13-11-------11-10---11-13--
G----------------------------------------10-12----------------  Puente
D-------------------------------------------------------------
A-------------------------------------------------------------
E-------------------------------------------------------------


Dm
Sentada frente al mar
              A#
Viendo su estrella descansar
     C
La brisa acaricia
                 A7
Su carita de cristal


            F
Cuando las alas del amor
           C
Rocen tus labios y una flor
     A#                           F-C
Amanezca una mañana en tu habitación
           F
Si sientes muy dentro de ti
          C
En tus entrañas una cálida voz
      A#                  F-C-F
No la dejes escapar esta vez

        C                A#
No la dejes escapar esta vez
    F       C
No, no, no, no
       F                  C
No la dejes escapar esta vez
       A#
No la dejes
    F        C
No, no, no, no
       F                C
Es la brisa, brisa de otoño
          A#
Brisa de otoño No la dejes
        F      C          F
No la dejes escapar esta vez
C           A#   F C
No, No la dejes....





---------------------------------------------------------------------

También saqué el requinto pero como voy comenzando en este rollo
no se si esté correcto, de cualquier forma aquí se los pongo

e|-5-4-2-|-5-4-2-|-2-0---------|
B|------2|------3|-----3-0-3-2-|
G|-------|-------|------2------|

bueno ai se los dejo y echenle un ojo y ps ai sta mi correo para
cualquier duda, comentario, sugerencia, queja... etc

un saludo para mis camaradas el tomasin, el pierre, el omar, al
chambitas, al ugo, el trivy y no podia faltar el carnalin...jaja
Calificar esta versión:
Aviso: Este fichero es trabajo propio de su transcriptor y representa su interpretación personal de la canción. El material contenido en esta página es para exclusivo uso privado, por lo que se prohibe su reproducción o retransmisión, así como su uso para fines comerciales.
Más versiones de Brisa De Otoño, Mago De Oz
Brisa De Otoño
acordes
Brisa De Otoño
tablatura
Descubre más canciones de Mago De Oz