Ancha Es Castilla, Mago De Oz (tablatura)

Autor: gato_chido_j | 34213 visualizaciones

e---------------------------------------------------------------
B--8-6-8-6-----------------------------6-8-8-6-8-9-8-6-------6--
G----------8-8-7-8-7-5-5---5-7-8-8-7-8-----------------8-7-8---8
D------------------------8--------------------------------------
A---------------------------------------------------------------
E---------------------------------------------------------------


e--------------------------------------------8------------------
B-------------------------------------5---8---------------------
G-7-5---5------5--7----5----5--7----5---------------------------
D-----8-----8--------8----8-------8-----------------------------
A---------------------------------------------------------------
E---------------------------------------------------------------



:p

Comentarios del colaborador: OK VOY A SUBIR TODAS LAS KANCIONES DE MAGO Q NO ESTEN AKI SOLO PIDANMELAS MI CORREO ES GATO_CHIDO_J@HOTMAIL.COM :p PRONTO EL FIN DEL CAMINO Y CANCION DE CUNA PARA UN BOHEMIO

Calificar esta versión:
Aviso: Este fichero es trabajo propio de su transcriptor y representa su interpretación personal de la canción. El material contenido en esta página es para exclusivo uso privado, por lo que se prohibe su reproducción o retransmisión, así como su uso para fines comerciales.
Más versiones de Ancha Es Castilla, Mago De Oz
Ancha Es Castilla
acordes
Ancha Es Castilla
tablatura
Ancha Es Castilla
bajo
Ancha Es Castilla
teclado
Ancha Es Castilla (ver 2)
teclado
Descubre más canciones de Mago De Oz