Adios Dulcinea, Mago De Oz (tablatura) (ver 2)

Autor: carl619 | 19658 visualizaciones

=tablatura con acordes=
artista: mago de oz
by: charlie G. KIRA
nombre: ADIOS DULCINEA

esta es mi primera cancion... espero y les guste...
y un aplauso para mago de oz ...la proxima cancion es ..
cielo de un solo color... de no te va a agustar... porfa punten
dejen comentarios....y denme un 10...ha.. esta cancion
se la dedico a una amiga muy especial.. que fue novia
itzel... va la rola..
verso 1
1
 he decido escribirte.....
D             A                Bm
------2-----0----------1-------1---------
------3-----2----------2------2----------
---2------2----2----4----4-4------------
-0----------------4----------------------
------------------------------------------
------------------------------------------

despues de tanto llorar
D                   A                b
------2-----0----------1-------1---------
------3-----2----------2------2----------
---2------2----2----4----4-4------------
-0----------------4----------------------
------------------------------------------
------------------------------------------
MIS lagrimas son hoy estos versos que...
G                           A                                  D
-------3---------0-----2-------2--------------
-------0---------2-----3-------3--------------
----0----0----2-----------2-2-----------------
-------------2-------0-------------------------
------------------------------------------------
-3----------------------------------------------
tu ausencia nunca podra borrar...
D          A                     Bm
------2-----0----------1-------1---------
------3-----2----------2------2----------
---2------2----2----4----4-4------------
-0----------------4----------------------
------------------------------------------
------------------------------------------
Me voy como Vine a tu vida...
D                         A                         Bm
-----2------0---------1----1----------------
-----3----2-----------2----2----------------
---2----2-----2----4----4------------------
-0---------------4--------------------------
---------------------------------------------
---------------------------------------------
sin hacer ruido me despido me voy...
                                                         D                  D           Bm
-----2------0---------1----1----------------
-----3----2-----------2----2----------------
---2----2-----2----4----4------------------
-0---------------4--------------------------
---------------------------------------------
---------------------------------------------
pero me cuesta tanto olvidarte mi amor...
G                  A               Bm
-------3---------0-----2-------2--------------
-------0---------2-----3-------3--------------
----0----0----2-----------2-2-----------------
-------------2-------0-------------------------
------------------------------------------------
-3---------------------------------------------
me cuesta tanto decirte adios..
D                              A                           Bm
-----2------0---------1----1----------------
-----3----2-----------2----2----------------
---2----2-----2----4----4------------------
-0---------------4--------------------------
---------------------------------------------
---------------------------------------------
	(pre-coro)

Hoy e vuelto a entender que jamas volveran....
             D                       A                       Bm
-----2------0---------1----1----------------
-----3----2-----------2----2----------------
---2----2-----2----4----4------------------
-0---------------4--------------------------
---------------------------------------------
---------------------------------------------
aquellos paseos de vuelta al hotel....
D                    A                           Bm
-----2------0---------1----1----------------
-----3----2-----------2----2----------------
---2----2-----2----4----4------------------
-0---------------4--------------------------
---------------------------------------------
---------------------------------------------
En que tu me empujabas para no perder,
G                A                 D                  
-------3---------0-----2-------2--------------
-------0---------2-----3-------3--------------
----0----0----2-----------2-2----2------------
-------------2-------0-------------------------
------------------------------------------------
-3---------------------------------------------
ni un solo instante en hacer el amor.......
                      A                                 Bm
-----2------0---------1----1------1----------
-----3----2-----------2----2-----3-----------  Bm
---2----2-----2----4----4-------4-----------
-0---------------4---------------4-----------
----------------------------------1-----------
---------------------------------------------

			(coro)

dejare de verte crecer, me marcho a vivir.....
                                                                 D                    A                 Bm
------2---2--2--2-2---0-----0----0----1--1---------
------3---3--3--3-3---2-----2----2----3--3---------
---0------0--0-0-0---2-----2--2----4---------------
-2-------------------2-----2---------------------------
--------------------------------------------------------
--------------------------------------------------------
donde abita el olvido....
G                              D
------3-3-3----2--2---2-------------------------------
------0-0-0----3--3---3-------------------------------
--0-------------------2---------------------------
------------------------------------------------
------------------------------------------------
-3-----------------------------------------------
he intentare buscar otro camino otro amor....
                                                                D         A                   Bm       Fm
----2-2-2----0-----0--------1----1--2----------------------
----3-3-3----2-----2--------3----3--2----------------------
-----------2--2--2-----2--4---4--4--2----------------------
-0-----------------------------------------------------------
------------------------------------------------------------
------------------------------------------------------------
cada ves que intento perder, el miedo a caer---
D                     A                  Bm
-----2----2--2-2-2----0-----0-----0---1--1------------
-----3----3--3-3-3----2-----2-----2---3--3------------
---2------0--0-0-0----2-----2---2---4-----------------
-0-------------------2-----2----------------------------
---------------------------------------------------------
---------------------------------------------------------
Me tropieso en mi mismo....
G                            A
----3--3--3--2--2---2-------------------------
----0--0--0--3--3---3-------------------------
--0----------------2----------------------
----------------------------------------
----------------------------------------
-3---------------------------------------
y dejo escapar.... a quien me a aquerido y me quedo sin luz.....
D               A               Bm                     D
----2-2-----2-----0---0--0--0--0---1--1---2----------------
----3-3-----3-----2---2--2--2--2---3--3---3----D-----------
----------2----2--2---2--2--2--2---4--4---2-----------------
-0-------------------------------------------------------------
---------------------------------------------------------------
---------------------------------------------------------------

el suelo de mi vida se viste.......... 

es lo mismo con toda la cancion......
se las dejo abajo

el suelo de mi vida se viste,
se abriga con hojas de un adios,
mi destino es amar y despedirme pedir,
permiso para vivir.

te deaste olvidados en cada rincon,
de mi alma trocitos de tu CORAZON,
te dejaste olvidados en mi alma el olor
dormia abrazado a una flor..
dejare de verte crecer,
me marchoa vivir, donde habita el olvido,
iiintentare buscar,otro camino,otro amor,
y no se si me perdere,
o me encontrare, me siento tan solo
pero a mi infierno ire en busca
de todo lo ke no te di!!!!....

hoy he vuelto a entender que,
jamas volveras,acariciarme,
antes de domir
y pegava mi pecho,me pides que....
te abraze y no te deje ir....

dejare de verte crecer,
me tengo ke ir, y encontrar
mi camino, y nunca olvidare
lo que me has querido AMOR........
dejare de verte crecer,
me marcho a vivir, donde hbita el olvido
iinnntentare buscar, otro camino,otro amor,
cada vez, que intento perder el miedo a caer,
me tropiezo en mi mismo.........
Y DEJO ESCAPAR A KIEN ME "HA QUERIDO",
y me quedo sin luz.
adios mi vida me voy, te dejo marchar,
VIVIRE EN TUS RECUERDOS.......
JAMAS TE OLVIDARE.........
adios dulcinea me voy..........
Y SI NOS VOLVEMOS A VER,
SOLO ABRAZAME......
SIGO SIENDO AQUEL NIÑO
KON MIEDO A  MADURAR......
duermo pegdo a tu foto mi amor......
adios dulcinea mi amor

Comentarios del colaborador: bueno chao... punten por favor... ha el rasgueo en el coro es... en rock es----abajo,abajo,abajo,abajo,abajo,arriba,abajo.... la cancion es hecha para 2guitarras... pero si gustan tocarla con una... pues.. bien... toquen el inicio arpegiado como sale en el intro... y el coro en rasgueo...suena de poca madre.. ojala que les sirva.... bay.. punten con 10... neta la cancion esta bien chida... solo toquenla como es... bay....

Calificar esta versión:
Aviso: Este fichero es trabajo propio de su transcriptor y representa su interpretación personal de la canción. El material contenido en esta página es para exclusivo uso privado, por lo que se prohibe su reproducción o retransmisión, así como su uso para fines comerciales.
Más versiones de Adios Dulcinea, Mago De Oz
Adios Dulcinea
acordes
Adios Dulcinea
tablatura
Adios Dulcinea (ver 2)
tablatura
Adiós Dulcinea
bateria
Descubre más canciones de Mago De Oz