Simple Man, Lynyrd Skynyrd (tablatura)

Autor: [anoni]Lukas Gontmajer[anoni] | 45592 visualizaciones



C                          G
D|--------|---------------------------|---------------------------|
A|--------|---------------1-----------|---------------------------|
F|--------|.-----0-----------0-----0--|--------------0------------|
C|--------|.--------2-----------2-----|-----0-----------0-----0---|
G|--0--2--|---3--------3--------------|--------2-----------2------|
D|--------|---------------------------|--3--------3---------------|


        Am
D|---------------------------|--------------3------------|
A|---------------1-----------|-----1-----------1---------|
F|------2-----------2-----2--|--------2-----------------.|
C|---------2-----------2-----|-----------2--------------.|
G|---0--------0--------------|--0-----------------0--2---|
D|---------------------------|---------------------------|


Ponte:

                  C                      G
D|--------|-----------------------|------------------------|
A|--------|-----------------------|------------------------|
F|--------|.--5-------------------|------------------------|
C|--------|.--5-------------------|--5---------------------|
G|--0--2--|---3-----3-/-5--3--0---|--5------3-/-5--3-------|
D|--------|-----------------------|--3-----------------3---|


          Am7
D|------------------|-----------------|
A|------------------|-----------------|
F|------------------|----------------.|
C|--7---------------|--7-------------.|
G|--7---------------|--7-------0--2---|
D|--5---------0--3--|--5--------------|



     C        G                Am
My Moma told me, when I was young,
	  C        G         Am
Come sit be side me, my only son.
	   C     G          Am
And listen closely,to what I say.
       C         G                             Am
and if you do this,it will help you some sunny day

     C        G                Am
Take your time, don't live too fast
     C        G                Am
Troubles will come and they will pass
     C        G                Am
Go find a woman and you'll find love
     C        G                Am
And don't forget, son there is someone up above

Refrão:

   C5            C5 / G5          G5  A5                A5
|-------------------------------------------------------------------|
|-------------------------------------------------------------------|
|-------------------------------------------------------------------|
|--10-----------10\5--5-----------5---7-----------------7-----------| (2x)
|--10-----------10\5--5-----------5---7-----------------7-----------|
|--8------------8\\3--3-----------3---5----------0-3-0--5-----------|


        C      G         Am
And be a simple kind of man,
	   C    G                   Am
And be something, you love and understand,
	C   G           Am
Be a simple, be a simple man,
          C           G              Am
Wont yout do this for me son, if you can?

     C        G                Am
Forget your lust for the rich man's gold
     C        G                Am
All that you need is in your soul
     C        G                Am
And you can do this if you try
     C        G                Am
All that I want for you my son? Is to be satisfied

(Refrão)

     C        G                Am
Boy, don't you worry, you'll find yourself
     C        G                Am
Follow you heart and nothing else
     C        G                Am
And you can do this if you try
     C        G                Am
All I want for you my son is to be satisfied

(Refrão)

     C        G                Am
Baby, be a simple man
     C        G                Am
Be something you love and understand
     C        G                Am
Baby, be a simple man

Final: C  G  Am  F  C  G  Am








 





Siga-nos no Twitter!



































abrir player
afinador
rolagem
dicionário
favoritar cifra
add a minhas pastas
letra
tradução
imprimir
corrigir
baixar cifra

Texto Colunas 
diminuir aumentar 

uma duas 

Alterar tom½ tom ½ tom 
afinação  acordes na letra esconder tabs  mais »

Cifra   Guitar Pro  Baixo  Baixo Completa  Mais... 
 178.813  exibições 
Email


violão teclado cavaco 

A5
12

X022XX


Am
123

X02210


Am7
12

X02010


C
123





Calificar esta versión:
Aviso: Este fichero es trabajo propio de su transcriptor y representa su interpretación personal de la canción. El material contenido en esta página es para exclusivo uso privado, por lo que se prohibe su reproducción o retransmisión, así como su uso para fines comerciales.
Más versiones de Simple Man, Lynyrd Skynyrd
Simple Man
acordes
Simple Man
tablatura
Descubre más canciones de Lynyrd Skynyrd