Free Bird, Lynyrd Skynyrd (tablatura)

Autor: kevin941116@hotmail.com | 29684 visualizaciones



intro 

e-|------------------------------------------------------------|
B-|---3-/-8--7/8-\-7------8--8-\7-\5-\3/5/7--3/5--5-/-3--------|
G-|------------------------------------------------------4--4/-|
D-|------------------------------------------------------------|
A-|------------------------------------------------------------|
E-|------------------------------------------------------------|

   
e-|------------------------------------------------------------|
B-|------6-6-6\5-----------------------------------------------|
G-|-/5-----------5---------4--5----7--\-5-/7--(7)-/19-\-----19-|
D-|----------------5\---/5------------------------------\19----|
A-|------------------------------------------------------------|
E-|------------------------------------------------------------|

       
e-|------------------------------------------------------------|
B-|-----3/8-------7-/8\7---(7)/8-8\7-\5-\---5-\-3--------------|
G-|-----------------------------------------------4--4--/-5----|
D-|------------------------------------------------------------|
A-|------------------------------------------------------------|
E-|------------------------------------------------------------|

                        
e-|------------------------------------------------------------|
B-|-----6\5----------------------------------------------------|
G-|--5------5----------4-5---7--\--5/7--7\5-/7--5/7--9/--------|
D-|------------5\---5------------------------------------------|
A-|------------------------------------------------------------|
E-|------------------------------------------------------------|





Calificar esta versión:
Aviso: Este fichero es trabajo propio de su transcriptor y representa su interpretación personal de la canción. El material contenido en esta página es para exclusivo uso privado, por lo que se prohibe su reproducción o retransmisión, así como su uso para fines comerciales.
Más versiones de Free Bird, Lynyrd Skynyrd
Free Bird
acordes
Free Bird (ver 2)
acordes
Free Bird
tablatura
Descubre más canciones de Lynyrd Skynyrd