Como, Luis Miguel (acordes)

Autor: Anónimo | 39163 visualizaciones

a7bmdd7ee7fsos7fmggm
 D           F#7         Bm     D7   G       Gm       Fm

E|-3-3-2-2----------3-3-2-2---------3-3-2-2----------3-3-2-2-
B|-2----------------------------------------0----0-1---------
G|---------2-1-2-3----------2-1-2-3------------3-------------
D|-----------------------------------------------------------
A|-----------------------------------------------------------
E|-----------------------------------------------------------

   

E|---------5-5-3-3-2-0-------7-7-5-5---3-3-2-2-0-------------
B|-1-0-0-1--------------3-2----------0------------3-2--------
G|-----------------------------------------------------------
D|-----------------------------------------------------------
A|-----------------------------------------------------------
E|----------------------------------------------------------- 



 D                    F#7
COMO IMAGINAR QUE LA VIDA SIGUE IGUAL

 Bm                       D7
COMO SI TUS PASOS YA NO CRUZAN EL PORTAL

 G          Gm  Fm          Bm
COMO PRETENDER, ESTA REALIDAD

 E              E7               A7          
COMO SI HASTA AYER BRILLABA EL SOL EN TU MIRAR



D                   F#7
COMO CONSOLAR A LA ROSA Y AL JAZMIN

 Bm                       R7
COMO SI TU RISA YA NO SE OYE EN EL JARDIN

G              Gm           Fm         Bm
COMO HE DE MENTIRLES QUE MAÑANA VOLVERAS

E          A7             D  
COMO DESPERTAR SI TU NO ESTAS

[REQUINTO]

SE REPITE IGUAL

COMO CONSOLAR A LA ROSA Y AL JAZMIN
COMO SI TU RISA YA NO SE OYE EN EL JARDIN
COMO HE DE MENTIRLES QUE MAÑANA VOLVERAS
COMO DESPERTAR SI TU NO ESTAS.
si tienen algun comentario no duden es escribirme 

Fuente original: LaCuerda
Colaborador original: luis [luis_p_f86@atame.org]
Calificar esta versión:
Aviso: Este fichero es trabajo propio de su transcriptor y representa su interpretación personal de la canción. El material contenido en esta página es para exclusivo uso privado, por lo que se prohibe su reproducción o retransmisión, así como su uso para fines comerciales.
Más versiones de Como, Luis Miguel
Como
acordes
Como (ver 2)
acordes
Descubre más canciones de Luis Miguel