Amarte Es Un Placer, Luis Miguel (tablatura) (ver 2)

Autor: Anónimo | 46031 visualizaciones

Este es el puente de la cancion, originalmente se toca con violin
pero tambien se oye chido con guitarra

Los tonos para esye puente son los siguintes: G,D,Em,Bm,C,G,Am,D7,G
   
    G              D      
E--5-7-----------5-7-5--------|
B----------5-7-8--------------|
G------7-7-------------7-7----|
R-----------------------------|
A-----------------------------|
E-----------------------------|

   Em              Bm   
E------------------5~7~5------|
B--------5-7-8-----------8-7--|
G--4-5-7-------4-4------------|
R-----------------------------|
A-----------------------------|
E-----------------------------|

   C             G             Am    D7    G
E-----------------------------------------------|
B-----------------------------------------------|
G--7-9-0-0-0-0-0-7-9-0-0-0-0-0-5~7~5-4-5-4------|
R------------------------------------------7-5-5|
A-----------------------------------------------|
E-----------------------------------------------|

Haber que les parece este puente no esta muy complicado 
solo se requiere un poco de agilidad y listo

Fuente original: LaCuerda
Colaborador original: Giovanni Bernardo Mata Gonzalez [completoloco@hotmail.com]
Calificar esta versión:
Aviso: Este fichero es trabajo propio de su transcriptor y representa su interpretación personal de la canción. El material contenido en esta página es para exclusivo uso privado, por lo que se prohibe su reproducción o retransmisión, así como su uso para fines comerciales.
Más versiones de Amarte Es Un Placer, Luis Miguel
Amarte Es Un Placer
acordes
Amarte Es Un Placer (ver 2)
acordes
Amarte Es Un Placer
tablatura
Amarte Es Un Placer (ver 2)
tablatura
Descubre más canciones de Luis Miguel