Llueve Por Dentro, Luis Fonsi (tablatura)

Autor: Anónimo | 24254 visualizaciones

   Dm        Bb        F        C
e---1--1--3--5--1--1--3--5--1--1--3--1--0--0--3--0---
B----------------------------------------------------
G----------------------------------------------------
D---0------------------------------------------------
A---------------1-----------------------3------------
E---------------------------1------------------------


           Dm              Bb
Que puedo haser llueve por dentro
         F                   C
y el corazon me duele y se desace
         Dm             Bb                      F
pienso en ti, quiero volar y remontar esta tristeza
       C
para escaparme
        Bb         Gm              F
quiero vivir por siempre juntoa ti,no importa nada
   C                            Bb
y huir de este silencio que se roba mis mañanas
   C
libera y acorrala

coro:
  Dm              Bb
hoy llueve por dentro
  F      C
en mi, en mi
  Dm           Bb      F       C
atravieso el cielo por ti se inunda el corazon
              Bb
mientras te pienso
              C               Dm      Bb  F  C
cuando tu no estas llueve por dentro

Dm        Bb        F        C
e---1--1--3--5--1--1--3--5--1--1--3--1--0--0--3--0---
B----------------------------------------------------
G----------------------------------------------------
D---0------------------------------------------------
A---------------1-----------------------3------------
E---------------------------1------------------------

            Dm             Bb
que puedo hacer sin tu mirada
           F                 C
se clava en mi, luego me arranca el alma
         Dm      Bb
no hay adios, solo hay entre tu y yo
       F               C
una tristeza que nos separa
        Bb     Gm
quiero reir por simpre junto a ti
       F
no importa nada
     C                     Bb
y poco a poco rescatar el sol de tus mañanas
          C
el viento entre tus alas

coro:
Dm                Bb
hoy llueve por dentro
   F      C
en mi, en mi
     Dm         Bb     F     C
atravieso el cielo por ti se inunda el corazon
             Bb
mientras te pienso
        C             Gm
cuando tu no estas llueve por dentro
           Bb         F
no es imposible amor tan lejos, tan lejos
    Gm        Bb
pero siento que muero
      A
si no te tengo

coro:
   Dm             Bb
hoy llueve por dentro
   F      C
en mi, en mi
    Dm        Bb       F     C
atravieso el cielo por ti se inunda el corazon
              Bb       Bb            C          Dm
mientras te pienso, cuando tu no estas llieve por dentro

   Dm        Bb        F        C
e---1--1--3--5--1--1--3--5--1--1--3--1--0--0--3--0---
B----------------------------------------------------
G----------------------------------------------------
D---0------------------------------------------------
A---------------1-----------------------3------------
E---------------------------1------------------------
Calificar esta versión:
Aviso: Este fichero es trabajo propio de su transcriptor y representa su interpretación personal de la canción. El material contenido en esta página es para exclusivo uso privado, por lo que se prohibe su reproducción o retransmisión, así como su uso para fines comerciales.
Más versiones de Llueve Por Dentro, Luis Fonsi
Llueve Por Dentro
acordes
Llueve Por Dentro
tablatura
Descubre más canciones de Luis Fonsi