Esperanza, Lucybell (bajo) (ver 2)

Autor: Anónimo | 20117 visualizaciones

intro
el verso es el mismo que el intro, se repite varias vaces.

G|------------------------------------------------------------------------------------|
D|----2-2------2-----------2-2----2-----------7-7-------7-----------7-7-------7-------|
A|--2------2-----2-------2------2---2-------7-------7-----7-------7-------7-----7-----|
E|-3------3--3-----3-0-3-------3-3----3/8-8-------8---8-----8-0-8-------8---8-----83-|
entre medio hay unas variaciones juegen con estas notas
G|-----|
D|-7-9-|
A|-----|
E|-----|
luego viene una parte corta donde deja de cantar
G|----------------------------------------------------------|
D|----------------------------------------------------------|
A|----------------------------------------------------------|
E|-11-11-11-11-11-11-11-11-11-11-11-8-8-8-8-8-8-8-8-8-8-83-|

(verso)x 2

 coro:
   ESPERANZA HAY ESPERANZA.....
G|---------------------------------------------------------------------------|
D|---------------------------------------------------------------------------|
A|---------------------------------------------------------11-11-11-11-11-11-|
E|-11-11-11-11-11-11-11-11-11-11-11-8-8-8-8-8-8-8-8-8-8-8-8------------------|

G|---------------------------------|
D|---------------------------------|
A|---------------------------------|
E|-7-7-7-7-7-7-7-5-5-5-5-5-5-5-5-5-|

interludio:

G|---------------------------------------------------|
D|---2---2-2---2-5-2---2--2-2---2-2/5-5-5-5-7-5---5--|
A|-4---4-----4-------4--------4-----------------7----|
E|---------------------------------------------------|

G|--------------------------------------------|
D|---2--2-2---2-5-2---2-2-2---2-2---2---2---2-|
A|-4--4-----4-------4-------4-----4---4---4---|
E|--------------------------------------------|

(coro)x 3 EN ESTA PARTE VARIA UN POCO.
G|-----------------------------------------------------|
D|-----------------------------------------------------|
A|-5-5-5-5-5-5-5-5-5-5-5-5-5-3-3-3-3-3-3-3-3-3-3-3-3-3-|
E|-----------------------------------------------------|

G|--------------------------------------------------------|
D|--------------------------------------------------------|
A|-----------------------------2-2-2-2-2------------------|
E|-3-3-3-3-3-3-3-3-3-3-3-3-3-3------------5-5-5-5-5-5-5-5-|

FINAL

G|------------------------------------------|
D|---2-2-------2-----------2-2--------2-----|
A|--2------2-----2-------2--------2-----2---|
E|-3-----3---3-----3-0-3--------3---3-----3-|

                               esta parte se repite varias veces.
G|-----------------------------|--------------------------|
D|-------------2-2-------2-----|---------2-2--------2-----|
A|-----2---2---------2-----2---|-----2----------2-----2---|
E|-0-3---3---3-----3---3-----3-|-O-3---3------3---3-----3-|
Calificar esta versión:
Aviso: Este fichero es trabajo propio de su transcriptor y representa su interpretación personal de la canción. El material contenido en esta página es para exclusivo uso privado, por lo que se prohibe su reproducción o retransmisión, así como su uso para fines comerciales.
Más versiones de Esperanza, Lucybell
Esperanza
acordes
Esperanza
bajo
Esperanza (ver 2)
bajo
Descubre más canciones de Lucybell