Cuando Respiro En Tu Boca, Lucybell (tablatura)

Autor: Anónimo | 28665 visualizaciones

Dawer Mexico Productions presenta:

Hola! Este es mi primer tab, ojala y les sirva ya que esta es
una gran cancion que en lo particular es de mis preferidas
desde hace un buen rato:

Empieza asi:

|-7-8-8-8-8-8-8-8-8-8-8-8-8-8-8-8-8-8-8-8-7-7-7-7-
|-6-6-6-6-6-6-6-6-6-6-6-6-6-6-6-6-6-6-6-6-6-6-6-6-
|-5-5-5-5-5-5-5-5-5-5-5-5-5-5-5-5-5-5-5-5-5-5-5-5-  X 6
|-------------------------------------------------
|-------------------------------------------------
|-------------------------------------------------

Acordes a utilizar!

  F       C        Dm      A#m      Em
|-8--   |--3--    |-5--    |-1--    |-7--
|-8--   |--5--    |-6--    |-3--    |-7--
|-10-   |--5--    |-7--    |-3--    |-9--
|-10-   |--5--    |-7--    |-3--    |-9--
|-8--   |--3--    |-5--    |-1--    |-7--
|-8--   |--3--    |-5--    |-1--    |-7--

min 0:26


     F                                  Dm
Me alzo y salto de entre tus dedos sabre caer

                                    C             A#m
Ojala que sea cierto que odio tus dedos  ay ay ay ay

      F                                  Dm
Me estiro y espero que algo enrosque tu espalda en flor

                                    C             A#m
Ojala que sea cierto que odio tu espalda ay ay ay ay



    F
Cuando respiro en tu boca
      Em
Y penetra tu ojo en mi ojo
    F
Cuando respiro en tu boca
     Em                           FA
Me escondes como sangre a la herida.....



       F                           REm
Me pongo de pie y perdono el daño que a mi oido destrozo
                               C            A#m
Que sea cierto que odio el silencio ay ay ay ay



     F
Cuando respiro en tu boca
     Em
Penetra tu ojo en mi ojo
      F
Me precipito hacia el cielo
      Em
Cuando respiro en tu boca
      figura 1 (ver abajo)
Cuando respiro en tu boca
      figura 1
De par en par tu flor tension y caida
      figura 1             F
Cuando respiro en tu boca



Figura 1:

|---3--------3--------3-----3------------------
|------6--------6--------6-----6---------------
|---------5--------5--------------5------------
|----------------------------------------------
|----------------------------------------------
|----------------------------------------------


Ahora solo falta el solo... y aqui esta!
|-------------------------------------------------------
|-------------------------------------------------------
|---15-14-14---14-15-14-15-14-15--17-/-19--17-15-14-----
|-------------------------------------------------------
|-------------------------------------------------------
|-------------------------------------------------------



|-------------------------------
|-------------------------------
|-14-15-14-15-14-15--17--16-17--
|-------------------------------
|-------------------------------
|-------------------------------


Yo toko esta cancion exacatamente igual y creo que esta 100%
correcta, cualquier duda o aclaracion por favor mandenlo
 a themasterofpuppets665@hotmail.com
Calificar esta versión:
Aviso: Este fichero es trabajo propio de su transcriptor y representa su interpretación personal de la canción. El material contenido en esta página es para exclusivo uso privado, por lo que se prohibe su reproducción o retransmisión, así como su uso para fines comerciales.
Más versiones de Cuando Respiro En Tu Boca, Lucybell
Cuando Respiro En Tu Boca
acordes
Cuando Respiro En Tu Boca
tablatura
Descubre más canciones de Lucybell