Porque Aún Te Amo, Luciano Pereyra (tablatura)

Autor: Anónimo | 41825 visualizaciones

_____________________________________________________________________
|                                                                    |
|                           L E E  E S T O                           |
|____________________________________________________________________|
|                                                                    |
| antes de copiar esta canción en un selecciona el tipo de letra del |
| archivo de texto en Courier New para que no se corran los acordes  |
| y cópiala en una hoja tamaño carta u oficio porque en lo contrario |
| se correrían los acordes(los punteos)                              |
|____________________________________________________________________|



                Em    C      Em
e -------------------------------
B -------------------------------
G -------------------------------
D -2-4-5-4-2-0|-5-4---2-0---2----
A ------------------2------------
E ------------------------3------

                Em     C      D
e -------------------------------
B -------------------------------
G ------------------------2------
D -2-4-5-4-2-0|-5-4---2-0---5-4--
A ------------------2------------
E -------------------------------

G --------------
D -2-4-5-4-2-0--
A --------------
                                                           D
Em            C                        D                 G --------------
Mentiría se dijera que sin ti la vida sigue igual        D -2-4-5-4-2-0--
                                                         A --------------

Em                 C                         D
Que no duele tu partir y que por fin ya te logre olvidar
  Bm               C                G
Decir que no me afecta verte ya con otro
             C                  Em
No me lo creería ni yo mismo tampoco
  C                                    D
Seria mirarme el espejo y quererme engañar
              Em               C
Porque aun te amo, y sigo enamorado
                G
No encuentro el modo de olvidarme de ti
        D
De arrancarme tu amor de raíz
              Em                 C
Porque aun te amo, y estoy abandonado
           G
Lo que no aria por volarte a besar
        D
Y a tu lado poder despertar
              C              D -5-4---2-0---2----
Porque aun te amo            A -----2------------
                             E -----------3------


                             G --------------
                             D -2-4-5-4-2-0--
                             A --------------


Em                     C                         D          G -------------
Tus recuerdos están presente en cada cosa a mí alrededor    D -2-4-5-4-2-0-
                                                            A -------------
Em                        C                         D
No hay distancia ni hay olvido que te saquen de mi corazón
  Bm               C                G
Extraño cada instante que viví con tigo
                 C                    Em
Mi vida sin tu amor te juro es un castigo
   C                                 D
Regresa de nuevo con migo te pido perdón
              Em               C
Porque aun te amo, y sigo enamorado
                G
No encuentro el modo de olvidarme de ti
        D
De arrancarme tu amor de raíz
              Em                 C
Porque aun te amo, y estoy abandonado
           G
Lo que no aria por volarte a besar
        D
Y a tu lado poder despertar
              C
Porque aun te amo

                  C
e -------------11/12-11/12-11/12-11/12-10----10----
B -10-13-10-13----------------------------12----12-
G -------------------------------------------------
D -------------------------------------------------
A -------------------------------------------------
E -------------------------------------------------

      G
E ----------------------------------------------------
B -10-12-10---10--------------------------------------
G ---------12----12-11-12-11----11-9-12-9-------------
D ---------------------------12-----------------------
A ----------------------------------------------------
E ----------------------------------------------------

                           Am
E -------------------------19-19-19-19-19-19-19-19-19-
B ----10-13-10-13-17-13-17----------------------------
G -12-------------------------------------------------
D ----------------------------------------------------
A ----------------------------------------------------
E ----------------------------------------------------


   aki solo se toca una vez la cuerda del esp 15 i se
   arrastra asta el 14 en adelante sin tocarla
                          Em
E -19/17-15-17-15-17-15-17-15-14-13-12-11-10-9-8------  Em
B ----------------------------------------------------
G ----------------------------------------------------
D ----------------------------------------------------
A ----------------------------------------------------
E ----------------------------------------------------

              Em               C
Porque aun te amo, y sigo enamorado…
Em            C                        D              G -----------------
Mentiría se dijera que sin ti la vida sigue igual     D -2-4-5-4-2-0/2-2-
                                                      A -----------------
Calificar esta versión:
Aviso: Este fichero es trabajo propio de su transcriptor y representa su interpretación personal de la canción. El material contenido en esta página es para exclusivo uso privado, por lo que se prohibe su reproducción o retransmisión, así como su uso para fines comerciales.
Más versiones de Porque Aún Te Amo, Luciano Pereyra
Porque Aún Te Amo
acordes
Porque Aún Te Amo (ver 2)
acordes
Porque Aún Te Amo
tablatura
Descubre más canciones de Luciano Pereyra