Hoy Me Desperté, Luciano Pereyra (tablatura)

Autor: Anónimo | 31962 visualizaciones

Intro: Em7-A7-D-G-Em7-C#7-F#7
       Em7-A7-D-G-Em7-F#7-Bm

|------------------------------------------------------
|---7-8-7---5-------5-7-5------------------------------
|-------------6------------7-4---4-6-7---6-4-6----4-3--
|------------------------------------------------------
|------------------------------------------------------
|------------------------------------------------------

------------------------------------------------------------|
--7-8-7---5-8--5-7-5----7----7-9-10---10-12--10-9---7-6-7---|
---------------------7--------------------------------------|
------------------------------------------------------------|
------------------------------------------------------------|
------------------------------------------------------------|


 Bm          Em         F#7          Bm
Hoy me desperté y sin querer dije tu nombre
 Bm          Em         F#7          Bm
ya sin contener a mi mirar dejé que llore.
   Em7        A7          D
Tal vez te empiece a olvidar
   Em7       C#7          F#7
tal vez no te olvide nunca más.

 Bm          Em           F#7             Bm     F#7-Bm
Hoy me desperté y en mi jardin busqué las flores
  Bm          Em            F#7          Bm
tu recuerdo en mi, jazmin de abril lleno de soles
Em7        A7       D
y me vuelvo oscuridad
 Em7       C#7          F#7
porque ya no soy tu hombre

Bm            Em
Duele amor, amanecer
  A7          D
Quererte y no tenerte
 Em7        Bm
en sueños amarte
G7                      F#7
pero me despierto sin tocarte
Em7         A7      D
Duele amor, empezar asi
   G         Em7       F#7    Bm
un nuevo día y que no estés aqui.


------------------------------------------------------
---7-8-7---5-------5-7-5------------------------------
-------------6------------7-4---4-6-7---6-4-6----4-3--
------------------------------------------------------
------------------------------------------------------
------------------------------------------------------

------------------------------------------------------------|
--7-8-7---5-8--5-7-5----7----7-9-10---10-12--10-9---7-6-7---|
---------------------7--------------------------------------|
------------------------------------------------------------|
------------------------------------------------------------|
------------------------------------------------------------|


 Bm          Em         F#7            Bm     F#7-Bm
Hoy me desperté muriendo por besar tus labios
 Bm          Em         F#7            Bm
con ganas de ver tu desnudez entre mis manos
 Em7      A7       D
beber todo tu manantial
 Em7       C#7          F#7
moverte en la marea de mi barco.

Bm          Em         F#7            Bm     F#7-Bm
Hoy me desperté queriendo no haber despertado
Bm          Em         F#7            Bm
vuelvo al ventanal y espero verte regresando
 Em7        A7          D
pero pasa en soledad, otro día
 Em7       C#7          F#7
y tu que no has llegado

Bm            Em
Duele amor, amanecer
  A7          D
Quererte y no tenerte
 Em7        Bm
en sueños amarte
G7                      F#7
pero me despierto sin tocarte
Em7         A7      D
Duele amor, empezar asi
   G         Em7       F#7    Bm
un nuevo día y que no estés aqui,
Em7         A7      D
Duele amor, empezar asi
   G         Em7       F#7    Bm
un nuevo día y que no estés aqui.
Calificar esta versión:
Aviso: Este fichero es trabajo propio de su transcriptor y representa su interpretación personal de la canción. El material contenido en esta página es para exclusivo uso privado, por lo que se prohibe su reproducción o retransmisión, así como su uso para fines comerciales.
Más versiones de Hoy Me Desperté, Luciano Pereyra
Hoy Me Desperté
acordes
Hoy Me Desperté
tablatura
Descubre más canciones de Luciano Pereyra