Desde Que Tu Te Has Ido, Luciano Pereyra (tablatura) (ver 2)

Autor: Anónimo | 34394 visualizaciones

INTRO

   A                                        D                   E
E –7h9---9---9----7--7--5--5----5--5--5--3--3--2--2----2--2--2--5--5--4--4--
B –7h10--10--10---7--7--5--5----5--5--5--3--3--3--3----3--3--3--5--5--5--5--
G --------------------------------------------------------------------------
D --------------------------------------------------------------------------
A --------------------------------------------------------------------------
E --------------------------------------------------------------------------

                A
E -7--7--7--9---7--5--5--
B -7--7--7--10--7--5--5--
G -----------------------
D -----------------------
A -----------------------
E -----------------------


A           
Desde que tu te has ido
           F#/Bb      Bm
desde que te has marchado 
                   E
mis manos tienen frío 
D         E       A
por no tener tus manos


            
Desde que tu te has ido 
            F#/Bb    Bm
desde que me has dejado 
                 E
yo solo soy la sombra 
D              E      A
de aquel que tu has amado


                  F#                    Bm     Dm
Y en mi jardín pequeño de sueños y esperanza 
                    A       F#/Bb
hay un rumor hay invierno amor 
    Bm     E     A
sin ti no tengo nada 
Dm                  A       F#/Bb
hay un rumor hay invierno amor 
    Bm     E     A
sin ti no tengo nada

SE REPITE DESDE EL INTRO


Desde que tu te has ido 
desde que me he quedado 
en esta casa nuestra 
es que me falta algo


No se si es el aire no se si es la luz 
pero cuando miro amor 
se que me faltas tú 
pero cuando miro amor 
se que me faltas tú


   A      F#  Dm     E    A
E -0--2-3-2-0----0-1-0----------
B ------------3--------3--2-0---
G ----------------------------2-
D ------------------------------
A ------------------------------
E ------------------------------

                  F#                   Bm     Dm
Si de tus labios tiernos bebí todo mi canto 
                       A       F#/Bb
ahora... ahora y en silencio amor 
  Bm       E       A
quiero llorar mi llanto 
Dm            A       F#/Bb
ahora y en silencio amor 
  Bm       E            A Bm E A  
quiero llorar mi llanto oh oh oh oh
Calificar esta versión:
Aviso: Este fichero es trabajo propio de su transcriptor y representa su interpretación personal de la canción. El material contenido en esta página es para exclusivo uso privado, por lo que se prohibe su reproducción o retransmisión, así como su uso para fines comerciales.
Más versiones de Desde Que Tu Te Has Ido, Luciano Pereyra
Desde Que Tu Te Has Ido
acordes
Desde Que Tu Te Has Ido (ver 2)
acordes
Desde Que Tu Te Has Ido
tablatura
Desde Que Tu Te Has Ido (ver 2)
tablatura
Desde Que Tu Te Has Ido (ver 3)
tablatura
Descubre más canciones de Luciano Pereyra