Me Engañas Mujer, Lucho Barrios (tablatura)

Autor: Anónimo | 35490 visualizaciones



esta la saque para las que pagan mal a lo que uno les da:
no los confundo con la cancion entera porque el gran error de esta pagina
es que solo se ven los acordes, mas no como ni de que forma se puede tocar,
bueno si realmente les gusta la cancion, solo mandenme un email y les ayudo 
a que pudan hacer llorar la guitarra.

bueno aqui les vas:
(un principiante tiene que sudar sangre para sacarla pero la saca)

1|--12-12-12-12-9-------9-12-9-------12-9-------11-11-11-11--------7-12-11-9-------
2|-------------------10--------10---------10----------------12---9-----------------
3|----------------11--------------11---------11----------------9-------------------
4|---------------------------------------------------------------------------------
5|---------------------------------------------------------------------------------
6|---------------------------------------------------------------------------------

1|-------------------------------------9-------------------------12-11-10.---------
2|--12-10-9--------(9-10)-9-------9-10---12-10-9----9-----------9------------------
3|----------11-10-----------11-11----------------11---11-9-8-9-9-------------------
4|---------------------------------------------------------------------------------
5|---------------------------------------------------------------------------------
6|---------------------------------------------------------------------------------

1|--12-12-12-12-9-------9-12-9-------12-9-------11-11-11-11--------7-12-11-9-------
2|-------------------10--------10---------10----------------12---9-----------------
3|----------------11--------------11---------11----------------9-------------------
4|---------------------------------------------------------------------------------
5|---------------------------------------------------------------------------------
6|---------------------------------------------------------------------------------

1|-------------------------------------9-------------------------------------------
2|--12-10-9--------(9-10)-9-------9-10---12-10-9----9------------------------------
3|----------11-10-----------11-11----------------11---11-9-8-9---------------------
4|---------------------------------------------------------------------------------
5|---------------------------------------------------------------------------------
6|---------------------------------------------------------------------------------

1|--12-11-9---------------------------------9---
2|----------12-10-9-------(9-10)-9--------7-----
3|------------------11-10----------11---8-------
4|------------------------------------9---------
5|----------------------------------------------
6|----------------------------------------------

()=sin dejar de precionar el traste 9, apretan y sueltan rapito el 10





Calificar esta versión:
Aviso: Este fichero es trabajo propio de su transcriptor y representa su interpretación personal de la canción. El material contenido en esta página es para exclusivo uso privado, por lo que se prohibe su reproducción o retransmisión, así como su uso para fines comerciales.