De Rodillas, Lucas Arnau (tablatura)

Autor: Anónimo | 19220 visualizaciones



Mi primer Tab, no entiendo como les sonaba la canción medio tono

abajo, Asi es realmente.

Todo por el negocio de San Antonio...jajajajaja.

Afininación Natural

Intro: X2

Guitarra1:

    C#        F#          F#         G#7
e|--4--x------2-2-x----2--2-2-x-2-x-2--4---4-x-4-x-4--|
B|--6--x-4-6--2-2-x----2--2-2-x-2-x-2--4---4-x-4-x-4--|
G|--6--x-6-6--3-3-x-3h4---3-3-x-3-x-4--5h6-6-x-5-x-6--|
D|--6--x-6-6--4-4-x-------4-4-x-4-x-4--4---4-x-6-x-6--|
A|--4--x------4-4-x-------4-4-x-2-x-2--6---6-x-6-x-4--|
E|------------2-2-x-------2-2-x--------4---4-x-4-x-4--|
              B S         B S          B   S

Guitarra2:

    C#          F#               F#               G#7
e|--9--x--------9--9--x-------9--9--9--x-9--x-9---4-4-x-4-x-4--|
B|--9--x-9------9--9--x-------9--9--9--x-9--x-9---4-4-x-4-x-4--|
G|--10-x-10-10--10-10-x-10h11----11-11-x-10-x-11--5-5-x-5-x-6--|
D|--11-x-11-11--11-11-x----------11-11-x-11-x-11--6-6-x-4-x-4--|
A|--11-x----11-------------------------x----------4-4-x-6-x-6--|
E|--9----------------------------------x----------4-4-x-4-x-4--|
    B           B  S             B  S             B S


 C#                    F#
Siento que no estas conmigo
G#7                    F#      G#     C#
que te has olvidado que juntos podemos llorar
  C#                   F#
siento que no has entendido
G#7                  F#       F          A#m
que muero de miedo porque tu me dejes de hablar

Coro:

G#         F#    G#7   D#m7
y es que no puedo dejarte ir
           F               A#m
porque me duele saber que sin ti
    G#     F#    G#7     D#m7
yo no puedo mas que morir sin paz
          G#                  C#
quiero entregarme solo una vez mas
            D#m7            G#
dandote el tiempo que nunca fue
       F                 A#m
dejame ser el sabor de tu miel
           F#            D#7
solo siente que arde este amor
     D#m
que me tiene de rodillas
     G#               C#
rogandote solo una vez mas
      D#m7                      G#
deja que el viento nos roce la piel
     F         A#m        F#        D#m7
te quiero eso lo se, solo siento que arde este amor
     G#
que me tiene de rodillas
                         C#
rogando que me vuelvas a amar

   C#                   F#
Siento que no puedo dejarte
G#7                 F#       G#     C#
ya oigo el silencio bailando con la soledad
  C#                           F#
siento que no puedo dejar de mirar
G#                 F#       F          A#m
cada que tus ojos reflejan el sol junto al mar


Repite Coro...X1


 F   A#m          G#        F#
Es tu amor este amor de lo dos
 G#                           C#
quiero que me vuelvas a amar...


Alguna Correción: anders1990_7@hotmail.com





Calificar esta versión:
Aviso: Este fichero es trabajo propio de su transcriptor y representa su interpretación personal de la canción. El material contenido en esta página es para exclusivo uso privado, por lo que se prohibe su reproducción o retransmisión, así como su uso para fines comerciales.
Más versiones de De Rodillas, Lucas Arnau
De Rodillas
acordes
De Rodillas (ver 2)
acordes
De Rodillas
tablatura
Descubre más canciones de Lucas Arnau