Surf Mongol, Lost Acapulco (tablatura)

Autor: kirt hammet | 35399 visualizaciones



lost acapulco
surf mongol
by: tu papa slash d la 111 edwart_yaiden@hotmail.com


asi la sake yo aver si les funsiona solo falta el rekinto de la otra guitarra del principio
voten kuleros.

|--3---5-5--3--5---5-5--3--5----|--3--5-5---3-5-----5-5--3--5----------|
|--3---5-5--3--5---5-5--3--5----|--3--5-5---3-5-----5-5--3--5----------|
|--4---6-6--4--6---6-6--4--6----|--5--7-7---5-7-----7-7--5--7----------|
|--5---7-7--5--7---7-7--5--7----|--5--7-7---5-7-----7-7--5--7----------|
|--5---7-7--5--7---7-7--5--7----|--3--5-5---3-5-----5-5--3--5----------|
|--3---5-5--3--5---5-5--3--5--x7|--------------------------------------|

Parte 1
|---5----8-5----5-----8-7-5----5-5-5-----5-----5-5-5|-------------------------5---5-------5---5---------8----------8-----8----8-5|
|----------------------------------------|
|----------------------------------------|
|----------------------------------------|
|----------------------------------------|

Parte 2
|-----10-------13-10----10-----13-12-10-----13-12-10----10-|          
|--10----10----------10----10-------------13---------13----13--12-10---|
|---------------------------------------------|        
|---------------------------------------------|      
|---------------------------------------------|     
|---------------------------------------------| 



interlude:

|---7---6---5------------------------------------|
|---7---6---5------------------------------------|
|---8---5---6------------------------------------|
|---9---7---7------------------------------------|
|---9---7---7------------------------------------|
|---7---6---5------------------------------------|

oigan si konocen a algun baterista kon ekipo x el df o neza no duden en visitar: www.myspace.com/dirtoficilal y escribir 
sobre eso en el blog o si no tambien pueden komentarle y chatear kon el korreo ya mencionado arriba muchas gracias kamara.





Comentarios del colaborador: kamara gatys

Calificar esta versión:
Aviso: Este fichero es trabajo propio de su transcriptor y representa su interpretación personal de la canción. El material contenido en esta página es para exclusivo uso privado, por lo que se prohibe su reproducción o retransmisión, así como su uso para fines comerciales.