Mascarita, Lost Acapulco (tablatura)

Autor: sirius | 19611 visualizaciones



e|---------------------------------------------------------|
b|---------------------------------------------------------|
G|---------------------------------------------------------|
D|-0-0-4-5-4-5-4-0-0-4-5-4-5-4-0-0-4-5-4-5-4-0-0-4-5-4-5-4-|
A|---------------------------------------------------------|
E|---------------------------------------------------------|

e|---------------------------------------------------------|
b|---------------------------------------------------------|
G|---------------------------------------------------------|
D|---------------------------------------------------------|
A|-0-0-4-5-4-5-4-0-0-4-5-4-5-4-0-0-4-5-4-5-4-0-0-4-5-4-5-4-|
E|---------------------------------------------------------|

e|---------------------------------------------|
b|---------------------------------------------|
G|---------------------------------------------|
D|-0-0-4-5-4-5-4-0-0-4-5-4-5-4-0-0-4-5-4-5-4-0-|
A|---------------------------------------------|
E|---------------------------------------------|


Aqui se da la entrada con un redoble y luego más rápido:


e|-------------------|---------------|---------------|-----------|
b|-----7-8-7-8-7-----|-7-8-7-8-7-----|-7-8-7-8-7-----|-7-8-7-8-7-|
G|-7-7-----------7-7-|-----------7-7-|-----------7-7-|-----------|
D|-------------------|---------------|---------------|-----------|
A|-------------------|---------------|---------------|-----------|
E|-------------------|---------------|---------------|-----------|


e|-------------------|---------------|---------------|-----------|
b|-------------------|---------------|---------------|-----------|
G|-----6-7-6-7-6-----|-6-7-6-7-6-----|-6-7-6-7-6-----|-6-7-6-7-6-|
D|-7-7-----------7-7-|-----------7-7-|-----------7-7-|-----------|
A|-------------------|---------------|---------------|-----------|
E|-------------------|---------------|---------------|-----------|


e|-------------------|---------------|------------|
b|-----7-8-7-8-7-----|-7-8-7-8-7-----|-7-8-7-8-7--|
G|-7-7-----------7-7-|-----------7-7-|------------|
D|-------------------|---------------|------------|
A|-------------------|---------------|------------|
E|-------------------|---------------|------------|


Aquí con Rasgueo:

    G       B       D     C# / D     ¡¡¡¡MASCA - RITA¡¡¡¡


e|-------------------|---------------|---------------|-----------|
b|-----7-8-7-8-7-----|-7-8-7-8-7-----|-7-8-7-8-7-----|-7-8-7-8-7-|
G|-7-7-----------7-7-|-----------7-7-|-----------7-7-|-----------|
D|-------------------|---------------|---------------|-----------|
A|-------------------|---------------|---------------|-----------|
E|-------------------|---------------|---------------|-----------|


e|-------------------|---------------|---------------|-----------|
b|-------------------|---------------|---------------|-----------|
G|-----6-7-6-7-6-----|-6-7-6-7-6-----|-6-7-6-7-6-----|-6-7-6-7-6-|
D|-7-7-----------7-7-|-----------7-7-|-----------7-7-|-----------|
A|-------------------|---------------|---------------|-----------|
E|-------------------|---------------|---------------|-----------|


e|-------------------|---------------|------------|
b|-----7-8-7-8-7-----|-7-8-7-8-7-----|-7-8-7-8-7--|
G|-7-7-----------7-7-|-----------7-7-|------------|
D|-------------------|---------------|------------|
A|-------------------|---------------|------------|
E|-------------------|---------------|------------|

Aquí con Rasgueo:

    G       B       D     C# / D  (HACIENDO UN EFECTO DE SURFF HASTA B)

    G       B       D     C# / D    ¡¡¡¡¡MASCARITA¡¡¡¡¡¡¡


e|-------------------|---------------|------------|-10------|
b|-----7-8-7-8-7-----|-7-8-7-8-7-----|-7-8-7-8-7--|----10---|
G|-7-7-----------7-7-|-----------7-7-|------------|-------9-|
D|-------------------|---------------|------------|---------|
A|-------------------|---------------|------------|---------|
E|-------------------|---------------|------------|---------|







Comentarios del colaborador: PS SALE AHI SE LAS DEJO Y UN SALUDO PARA TODA LA BANDERA QUE LE GUSTE EL ROCK Y COMO DIRIA EL SIEMPRE ROCKANROLERO ALEX LORA (EL TRI) ¡¡¡¡¡¡¡QUE VIVA EL ROCK CABRONES!!!!!!

Calificar esta versión:
Aviso: Este fichero es trabajo propio de su transcriptor y representa su interpretación personal de la canción. El material contenido en esta página es para exclusivo uso privado, por lo que se prohibe su reproducción o retransmisión, así como su uso para fines comerciales.