Frenesick, Lost Acapulco (tablatura)

Autor: ¡¡ro0cÇke3rRi1T+o0!! | 15409 visualizaciones



e-1-------3-------5-----------1-------3-------------------------
b-1-------3-------5-----------1-------3-------------------------
g-2-------4-------6-----------2-------4----------------------
d-3-------5-------7-----------3-------5---------------------
a-3-------5-------7-----------3-------5---0-0-3-3-5-5-3-3-0-
e-1-------3-------5-----0-----1-------3-------------------------


e--------------------------------------------------------
b--------------------------------------------------------
g--------------------------------------------------------
d-----------------------------2-2------------------------
a---------2-2---------0-0-3-3-----3-3----------2-2-------
e-0-0-3-3-----3-3----------------------0-0-3-3-----3-3---
          x4               x2                x2

e-3-------5-------0-------------
b-3-------5-------0-------------
g-4-------6-------1-----------
d-5-------7-------2----------
a-5-------7-------2----------
e-3-------5-------0-------------
   x5     x5      x10

e------------------------------------------------------
b------------------------------------------------------
g------------------------------------------------------
d----------------------------2-2-----------------------
a---------2-2--------0-0-3-3----3-3-0----------2-2-----
e-0-0-3-3-----3-3-0--------------------0-0-3-3----3-3-0
      x2                 x1                 x1

e-1-------3-------5-------5-------3------1---------------
b-1-------3-------5-------5-------3------1---------------
g-2-------4-------6-------6-------4------2----------
d-3-------5-------7-------7-------5------3----------
a-3-------5-------7-------7-------5------3-----------
e-1-------3-------5-------5-------3------1-------------
   x5      x5      x6     x1       x1    x1



e-x---7---7-------x---5-5---x--7---------------------------------
b-x---8---8-------x---5-5---x--8-------------------------------
g-x---9---9-------x---5-5---x--9------------------------------
d-x---9---9-------x---5-5---x--9------------------------------
a-x---7---7-------x---5-5---x--7------0-0-0-9-0-9-0-9-0-9/3------
e-x---7---7-------x---5-5---x--7---------------------------------
        x4             x2      x2





Calificar esta versión:
Aviso: Este fichero es trabajo propio de su transcriptor y representa su interpretación personal de la canción. El material contenido en esta página es para exclusivo uso privado, por lo que se prohibe su reproducción o retransmisión, así como su uso para fines comerciales.