Tu Presa Facil, Los Yonics (tablatura)

Autor: Anónimo | 30615 visualizaciones



Armoniza en FA mayor

e--8-10-11-12-12-11-12--10-10--8-10-13-12-10--8-
B-10-11-12-13-13-12-13--11-11-10-11-14-13-11-10-
G-----------------------------------------------
D-----------------------------------------------
A-----------------------------------------------
E-----------------------------------------------

e--8-10-11-12-12-11-12--6-6-5-6--0-3-1--5-4-3-1-
B-10-11-12-13-13-12-13--------------------------
G-----------------------7-7-5-7--0-3-2--5-4-3-2-
D-----------------------------------------------
A-----------------------------------------------
E-----------------------------------------------





Calificar esta versión:
Aviso: Este fichero es trabajo propio de su transcriptor y representa su interpretación personal de la canción. El material contenido en esta página es para exclusivo uso privado, por lo que se prohibe su reproducción o retransmisión, así como su uso para fines comerciales.
Más versiones de Tu Presa Facil, Los Yonics
Tu Presa Facil
acordes
Tu Presa Facil
tablatura
Descubre más canciones de Los Yonics