Oh Alma Mía, Los Voceros De Cristo (tablatura)

Autor: Anónimo | 21812 visualizaciones



aHi arrIba eSta lA oPciOn pAra vOtAr, voTeN xfa pArA q nO mE eLimiNen
lA tRanSCrIpcIon de lA PaGinA. tHanK U.

Aqui se usa el capo ok, es decir q se cuenta con el capo ya puesto.
La nota del canto es "G" asi q pongan el capo a manera que G les
quede en forma de C.
O sea q cuando hagan C sea G(con el capo puesto).

Las cuerdas estan con numeros ok.
6= cUerda mas grande
1= cuerda mas pequeña
es para q no hayan confusiones ok.

6-| ---------------------------------------------------------|
5-| ---------------------------------------------------------|
4-| ------------------10----------------7-----------------7--|
3-| ----------------9-----------------5-----------------5----|
2-| ---------------8-----------------5-----------------6-----|
1-| -12--10--8-8--8------8--7--5-5--5------8--7--5-5--5------|


6-| -----------------------------------------------||
5-| -----------------------------------------------||
4-| ---------------------4--2--2--2------2---2--2--||
3-| ---5--4--4--4--4--0-------0---0---0--0--0---0--||
2-| --6------------------3--1-----0--0---1------0--||
1-| -5----3--3--3--3--0-----------0-------------0--||

eSo eS TodA lA iNtrO eSPeRo LeS SiRVa.
CualQuiEr CosA: marvillagran@hotmail.es EscRibaNme

GoD blLEss U...
Ahhh xfa Si uSaN la TraNscRipCion voTeN xfa uN 10si
si kieren comentar busquenme en el hi5 y comenten en mi perfil ok.
ahi esta mi correo para q me busquen.





Calificar esta versión:
Aviso: Este fichero es trabajo propio de su transcriptor y representa su interpretación personal de la canción. El material contenido en esta página es para exclusivo uso privado, por lo que se prohibe su reproducción o retransmisión, así como su uso para fines comerciales.
Más versiones de Oh Alma Mía, Los Voceros De Cristo
Oh Alma Mía
acordes
Oh Alma Mía
tablatura
Descubre más canciones de Los Voceros De Cristo